» » »

*Blink 182*, Better Days Tabs (ver.1)

Artists:  A B C D E F G H I J K L M N O P Q R S T U V W X Y Z # 

Better Days Tabs (ver.1)

*Blink 182* Tabs
 Rating:
4/5 (4 votes)
Better Days lessons Tabs too difficult? Try these video lessons and learn fast
1
                - Blink 182 - Better Days (Untitled 2nd Demo)
- Its pretty easy playing this song, just listen it and then play...good luck. 

_____________


Intro 
e|------------------------------------|--------|
B|------------------------------------|--------|
G|-------4-7-777-4-------4------------|--------|
D|-7-777-4-7-777-4-5-555-4-7-777-7^---|--1time-|
A|-7-777-2-5-555-2-5-555-2-7-777---7^-|--------|
E|-5-555-----------3-333---5-555------|--------|

e|-------------------------------|--------|
B|-------------------------------|--------|
G|-------4-7-777-4-------4-------|--------|
D|-7-777-4-7-777-4-5-555-4-7-777-|-3times-|
A|-7-777-2-5-555-2-5-555-2-7-777-|--------|
E|-5-555-----------3-333---5-555-|--------|

Verse
e|----------------------|--------|
B|----------------------|--------|
G|------7777-99119------|--------|
D|-7777-7777-99119-7777-|-4times-|
A|-7777-5555-77-97-7777-|--------|
E|-5555------------5555-|--------|

e|----------------------|--------|
B|----------------------|--------|
G|------7777-99119------|--------|
D|-7777-7777-99119-7777-|-4times-|
A|-7777-5555-77-97-7777-|--------|
E|-5555------------5555-|--------|
   **** **** ** ** **** 

Chorus [4x]
e|-----------------------------|
B|-----------------------------|
G|--------777777-999999--------|
D|-777777-777777-999999-777777-|
A|-777777-555555-777777-777777-|
E|-555555---------------555555-|


Intro 
e|------------------------------------|--------|
B|------------------------------------|--------|
G|-------4-7-777-4-------4------------|--------|
D|-7-777-4-7-777-4-5-555-4-7-777-7^---|--1time-|
A|-7-777-2-5-555-2-5-555-2-7-777---7^-|--------|
E|-5-555-----------3-333---5-555------|--------|


e|-------------------------------|-------|
B|-------------------------------|-------|
G|-------4-7-777-4-------4-------|-------|
D|-7-777-4-7-777-4-5-555-4-7-777-|-1time-|
A|-7-777-2-5-555-2-5-555-2-7-777-|-------|
E|-5-555-----------3-333---5-555-|-------|

Solo
e|---------------------------------------------------------------------|
B|--------10-1010-12-1212-9-99-10-1010-14-1414-15-1515-12-1212-14-1414-|
G|---------------------------------------------------------------------|
D|-7^7^7^--------------------------------------------------------------|
A|---------------------------------------------------------------------|
E|---------------------------------------------------------------------|

Solo continuation
e|---------------------------------------------------------------|
B|-10-1010-7-77--9--10-1210--9--10-1210--9--10-12-1514121012-910-|
G|--------------9-99--9-----9-99--9-----9-99--9-------------9----|
D|---------------------------------------------------------------|
A|---------------------------------------------------------------|
E|---------------------------------------------------------------|

Solo continuation
e|-------------------|
B|-10-1010-9-99-7-79-|
G|-------------------|
D|-------------------|
A|-------------------|
E|-------------------|

Verse
e|----------------------|--------|
B|----------------------|--------|
G|------7777-99119------|--------|
D|-7777-7777-99119-7777-|-4times-|
A|-7777-5555-77-97-7777-|--------|
E|-5555------------5555-|--------|
   **** **** ** ** **** 

Just bass [4x]

Chorus [4x]
e|-----------------------------|
B|-----------------------------|
G|--------777777-999999--------|
D|-777777-777777-999999-777777-|
A|-777777-555555-777777-777777-|
E|-555555---------------555555-|

Ending
e|---------------------------------|--------|
B|---------------------------------|--------|
G|-------7-777---------------------|--------|
D|-7-777-7-777-5-555-7-77-7^--7^---|--1time-|
A|-7-777-5-555-5-555-7-77---7^--7^-|--------|
E|-5-555-------3-333-5-55----------|--------|

e|-----------------------------|--------|
B|-----------------------------|--------|
G|-------7-777-----------------|--------|
D|-7-777-7-777-5-555-7-777--7~-|--1time-|
A|-7-777-5-555-5-555-7-777--7~-|--------|
E|-5-555-------3-333-5-555--5~-|--------|
            
Submit corrections

comments powered by Disqus
↑ Back to top | *Blink 182* Tabs for Better Days. Lyrics for acoustic guitar and electric guitar. 1 Tablatures and chords are parodies/interpretations of the original songs. You may use it for private study, scholarship, research or language learning purposes only