» » »

Go On Say It Tabs (ver.1)

Artists:  A B C D E F G H I J K L M N O P Q R S T U V W X Y Z # 

Go On Say It Tabs (ver.1)

Blind Pilot
Rating:
0/5 (0 votes)

Hard to play? Try these video lessons and learn fast.
                ---------------------------


I've been wanting to play this song since I heard it as the iTunes single of the week. I 
find a tab so I watched the music video and was able to pick up a few chords. 
I found the rest. Hope you like it.

Intro and Verse:

E|-0--0-0-0-0--0-0-0-0--0-0-0-0--0-0-0-|
B|-2--2-2-2-1--1-1-1-1--1-1-1-0--0-0-0-|
G|-2--0-0-0-2--0-0-0-0--0-0-0-1--1-1-1-|
D|-2--2-2-2-3--3-3-3-2--0-0-0-2--0-0-0-|
A|-0--0-0-0-3--3-3-3-3--3-3-3-2--2-2-2-|
E|-0--0-0-0-x--x-x-x-3--3-3-3-0--0-0-0-|


(Mini) Bridge:

E|-0-0-0-|
B|-1-1-1-|
G|-0-0-0-|
D|-2-2-2-|
A|-3-3-3-|
E|-3-3-3-|


Chorus:

E|-0--0-0--000-0--0-0--000-0--0-0--000-0--0-0--000-|
B|-1--1-1--111-1--1-1--111-1--1-1--111-1--1-1--111-|
G|-2--2-2--222-2--2-2--222-0--0-0--000-0--0-0--000-|
D|-3--3-3--333-3--3-3--333-2--2-2--222-2--2-2--222-| Play Thrice
A|-3--3-3--333-3--3-3--333-3--3-3--333-3--3-3--333-|
E|-x--x-x--xxx-x--x-x--xxx-3--3-3--333-3--3-3--333-|

Then:

E|-0--0-0--000-0--0-0--000-00-0--00-0-|
B|-1--1-1--111-1--1-1--111-11-1--00-0-|
G|-2--2-2--222-2--2-2--222-00-0--11-1-|
D|-3--3-3--333-3--3-3--333-22-2--22-2-|
A|-3--3-3--333-3--3-3--333-33-3--22-2-|
E|-x--x-x--xxx-x--x-x--xxx-33-3--00-0-|
            
Hard to play? Try these video lessons and learn fast. | Correct




comments powered by Disqus
↑ Back to top | Tablatures and chords are parodies/interpretations of the original songs. You may use it for private study, scholarship, research or language learning purposes only