» » »

Three Rounds And A Sound Tabs (ver.1)

Artists:  A B C D E F G H I J K L M N O P Q R S T U V W X Y Z # 

Three Rounds And A Sound Tabs (ver.1)

Blind Pilot
Rating:
0/5 (0 votes)

Hard to play? Try these video lessons and learn fast.
                song	  : three rounds and a sound
artist    : blind pilot


standard tuning, capo on 2nd fret
chords relative to capo


e--|--------------0-------0---------|----4-4---4---6---6---7---7-----|
b--|----0-----0---0---0---0---0-----|----4-4---4---4---4---4---4-4---|
g--|----8-----8-8-----8-8-----8-8---|----4-4---4---4-------------4---|
d--|----9-----9-9-----9-9-----9-9---|----6-6---4---4-------------4---|
a--|----9-----9-9-----9-9-----9-9---|----6-6---6-----------------6---|
E--|7---7---------------------------|4---4---------------------------|
    ^   ^   ^   ^   ^   ^   ^   ^    ^   ^   ^   ^   ^   ^   ^   ^    
    1       2       3       4        1       2       3       4       

e--|------2-----------0-------0---0-|------0-------0---0---0---0-----|
b--|------2-------0h2-2---0h2-2---0-|----0-0---0---0h2-2---0---0-0---|
g--|----3-----3---------3-------3---|----1-----1---1---1---1---1-1---|
d--|----4-----4---------4-------3---|2---2-----2-----------------2---|
a--|----4-----4---------4-------4---|2---2-----2-----------------2---|
E--|2-------------------------------|0-------------------------------|
    ^   ^   ^   ^   ^   ^   ^   ^    ^   ^   ^   ^   ^   ^   ^   ^    
    1       2       3       4        1       2       3       4       


repeat as necessary. sometimes he just strums the chords, should be
easy enough to follow along with.
            
Hard to play? Try these video lessons and learn fast. | Correct




comments powered by Disqus
↑ Back to top | Tablatures and chords are parodies/interpretations of the original songs. You may use it for private study, scholarship, research or language learning purposes only