>
 >
Wait For Tomorrow 1

Wait For Tomorrow 1 Guitar Tabs

Blessthefall - Wait For Tomorrow 1 chords, tabs, tablatures, lyrics

Guitar lessons | Add/correct | Request | Top 50 tabs Artists:  A B C D E F G H I J K L M N O P Q R S T U V W X Y Z 0-9

Wait For Tomorrow 1 Guitar Tabs – Blessthefall

CD, Sheet music, Poster

Do you like Wait For Tomorrow 1? Share with your friends now
Bass TabsChordsTabsTabs v2Ukulele
Drop D Tuning
Blessthefall- Wait for tomorrow Tab


ok, due to the incorrectness of the other tabs, i personally recorded and saw 90% of the 

Intro: use reverb

Both guitars (1st guitar doesnt play the 5,7,9, if you listen its a duet)

e|--------------------------------------------------------|
B|--------------------------------------------------------|
G|-------13---------11---------9----------11----------13--|
D|---11----------9----------7----------9----------11------|
A|9-----------7----------5----------7----------9----------|
D|--------------------------------------------------------|

then still with reverb (guitar 2 uses one octave lower than guitar one, duet)

e|-----------------------------------|
B|-----------------------------------|
G|---13-13/14-13----14/16\14-12------|
D|-11------------14------------------|
A|-----------------------------------|
D|-----------------------------------|


then both guitars play this once clean then twice with distortion (but 1st guitar play 
again like i the beginning, so it doesnt play 5,7,9)
e|---------------------------------------------------------------|
B|---------------------------------------------------------------|
G|------9----------11----------13-13/14-13----14/16\14-12--------|  (x3)
D|---7----------9-----------11-------------14---------------- ---|
A|5----------7---------------------------------------------------|
D|---------------------------------------------------------------|


Verse (listen for strumming)

Guitar 1: (x5)
e|-----------------------------------|
B|-----------------------------------|
G|---------13----14----13---11---13--|
D|----11-----------------------------|
A|-99----9----99----99----9----9-----|
D|-----------------------------------|

e|------------------------------------------|
B|------------------------------------------|
G|------9--------------------11----11-------|
D|----7------------7------9--------------9--|
A|-55----5----5/7-----77--------7-----7-----|
D|------------------------------------------|

(GUITAR 2 HAS TWO DIFFERENT RIFFS. STRUM IT AND YOU'LL HERE IT)
(GUITAR 1 IS STILL PLAYING THE 4 TIMES DURING THE X2 OF THE 2 RIFFS OF GUITAR 2)

(i may be missing one extra strum beat after the 4's to the 12's, 2's, but oh well add 
strum in yourself. no big deal right?)

Guitar 2: (x2)
e|---------------------------------------------|
B|---------------------------------------------|
G|---------------------------------------------|
D|-4444444444-121212121212-222222--------------|
A|-4444444444-121212121212-222222--------------|
D|-4444444444-121212121212-222222--------------|

(i may be missing one extra strum beat after the 4's to the 0's and 2's)

Guitar 2: (x2)
e|---------------------------------------------|
B|---------------------------------------------|
G|---------------------------------------------|
D|-4444444444-000000-222222--------------------|
A|-4444444444-000000-222222--------------------|
D|-4444444444-000000-222222--------------------|


then play
both guitars:  (x2)
e|-----------------------------------------------------------|
B|-----------------------------------------------------------|
G|-----------------------------------------------------------|
D|4444--------------------------0000-------------------------|
A|4444------------------11-12---0000------------------11-12--|
D|4444--121212101010999---------0000--121212101010999--------|

e|-----------------------------|---------------|
B|-----------------------------|---------------|
G|-----------------------------|---------------|
D|4444-------------------------|-000000-222222-|
A|4444------------------11-12--|-000000-222222-|
D|4444--121212101010999--------|-000000-222222-|


Verse again
Still listen for strumming patterns

Guitar 1: (x4)
e|-----------------------------------|
B|-----------------------------------|
G|---------13----14----13---11---13--|
D|----11-----------------------------|
A|-99----9----99----99----9----9-----|
D|-----------------------------------|

e|------------------------------------------|   
G|------9--------------------11----11-------|
D|----7------------7------9--------------9--|
A|-55----5----5/7-----77--------7-----7-----|
D|------------------------------------------|


Guitar 2: (x2)
e|---------------------------------------------|
B|---------------------------------------------|
G|---------------------------------------------|
D|-4444444444-121212121212-222222--------------|
A|-4444444444-121212121212-222222--------------|
D|-4444444444-121212121212-222222--------------|


Guitar 2: (x2)
e|---------------------------------------------|
B|---------------------------------------------|
G|---------------------------------------------|
D|-4444444444-000000-222222--------------------|
A|-4444444444-000000-222222--------------------|
D|-4444444444-000000-222222--------------------|


then play
both guitars:  (x2)
e|-----------------------------------------------------------|
B|-----------------------------------------------------------|
G|-----------------------------------------------------------|
D|4444--------------------------0000-------------------------|
A|4444------------------11-12---0000------------------11-12--|
D|4444--121212101010999---------0000--121212101010999--------|

e|-----------------------------|---------------|
B|-----------------------------|---------------|
G|-----------------------------|---------------|
D|4444-------------------------|-000000-222222-|
A|4444------------------11-12--|-000000-222222-|
D|4444--121212101010999--------|-000000-222222-|

both guitars:
e|------------------|
B|------------------|
G|------------------|
D|-0000-22-2222222--|
A|-0000-22-2222222--|
D|-0000-22-2222222--|
        ..

Guitar 1:
e|------------------|
B|------------------|
G|---9-13-14-13-9---| (keep playing that till guitars start doing the verse
D|-11------------11-|  till end)
A|9-----------------|
D|------------------|

Guitar 2:
e|---------------------------------|
B|---------------------------------|
G|---------------------------------|
D|-4444444444-222222-000000--------| (play till verse at the end)
A|-4444444444-222222-000000--------|
D|-4444444444-222222-000000--------|
   .......... ...... ......


VERSE (play till the ending)

Guitar 1
e|-----------------------------------|
B|-----------------------------------|
G|---------13----14----13---11---13--|
D|----11-----------------------------|
A|-99----9----99----99----9----9-----|
D|-----------------------------------|

e|------------------------------------------|
B|------------------------------------------|
G|------9--------------------11----11-------|
D|----7------------7------9--------------9--|
A|-55----5----5/7-----77--------7-----7-----|
D|------------------------------------------|


Guitar 2
e|---------------------------------------------|
B|---------------------------------------------|
G|---------------------------------------------|
D|-4444444444-121212121212-222222--------------|
A|-4444444444-121212121212-222222--------------|
D|-4444444444-121212121212-222222--------------|


Guitar 2
e|---------------------------------------------|
B|---------------------------------------------|
G|---------------------------------------------|
D|-4444444444-000000-222222--------------------|
A|-4444444444-000000-222222--------------------|
D|-4444444444-000000-222222--------------------|


Enjoy, this was my 1st tab, i had video references at 6 of their concerts, they like to 
harmonics, but cant find out which notes they use b/c they switch it up 3 times in their 
any comments or suggestions or corrections tell me about it.~- Malik AK





Comments


Popular Blessthefall tabs & chords
Take Me Now 2 Bass Tabs
Whats Left Of Me Bass Tabs
Higini Chords
Times Like These Drum Tabs
Could Tell A Love 1 Tabs
Could Tell A Love Intro 1 Tabs
Higinia 3 Tabs
Last Ones Left Tabs
Meet Me At The Gates Tabs
Stay Still Intro Tabs


Song lyrics



↑ Back to top | Tablatures and chords are parodies/interpretations of the original songs. You may use it for private study, scholarship, research or language learning purposes only
© 2014 AZChords.com Contact us | Privacy policy | DMCA | Add/correct tabs | Request tabs | Top 50 tabs