» » »

Blessthefall, His Last Walk Tabs (ver.1)

Artists:  A B C D E F G H I J K L M N O P Q R S T U V W X Y Z # 

His Last Walk Tabs (ver.1)

Blessthefall Tabs
 Rating:
4/5 (4 votes)
His Last Walk lessons Tabs too difficult? Try these video lessons and learn fast
1
                
Tuning: Drop D

(6X)
e|-----------------------------------------------------------------------------|
B|-----------------------------------------------------------------------------|
G|-----------------------------------------------------------------------------|
D|----------7p0---------7p0-7p0-7p0-----------7p0---------8p0-5p0-5p0----------|
A|----0h5h8-------0h5h8-----------------0h5h8-------0h5h8----------------------|
D|-0-0-----------0-------------------0-0------------0--------------------------|
      *  *                     *                                   *  *                      *
(4x)
e|-----------------------------------------------------------------------------|
B|-----------------------------------------------------------------------------|
G|-----------------------------------------------------------------------------|
D|-----5h7p5-------5h7p5----7p0-8p0-----7h8p7\5---5h7p5\3--2p0-2p0-------------|
A|-----------7p0---------8p0---------------------------------------------------|
D|-0-0-----------0-------------------0-0----------0----------------------------|
      *  *                     *                                   *  *                   *

e|------------------------------------------------------------------------------|
B|------------------------------------------------------------------------------|
G|------------------------------------------------------------------------------|
D|--9b--------------------------------------------------------------------------|
A|-(harmonic)-------------------------------------------------------------------|
D|------------------------------------------------------------------------------|

(HEAVY PALM MUTES)
e|-----------------------------------------------------------------------------|
B|-----------------------------------------------------------------------------|
G|-----------------------------------------------------------------------------|
D|-0-0-0----0-0-0----0-0----0-0-0----------------------------------------------|
A|-0-0-0----0-0-0----0-0----0-0-0----------------------------------------------|
D|-0-0-0----0-0-0----0-0----0-0-0----------------------------------------------|
      *  *  *        *  *  *        *   *       *   *  *

e|------------------------------------------------------------------------------|
B|------------------------------------------------------------------------------|
G|----------------------------------(harmonic)----------------------------------|
D|-------0h5h7--7----5h7p5-----------9b-----------------------------------------|
A|-0h5h8--------------------10-9-7-7--------------------------------------------|
D|------------------------------------------------------------------------------|


| /  slide up
| \  slide down
| h  hammer-on
| p  pull-off
| ~  vibrato
| +  harmonic
| x  Mute note
            
Submit corrections

comments powered by Disqus
↑ Back to top | Blessthefall Tabs for His Last Walk. Lyrics for acoustic guitar and electric guitar. 1 Tablatures and chords are parodies/interpretations of the original songs. You may use it for private study, scholarship, research or language learning purposes only