>
 >
Turns Cold To The Touch

Turns Cold To The Touch Guitar Tabs

Bleeding Through - Turns Cold To The Touch chords, tabs, tablatures, lyrics

Guitar lessons | Add/correct | Request | Top 50 tabs Artists:  A B C D E F G H I J K L M N O P Q R S T U V W X Y Z 0-9

Turns Cold To The Touch Guitar Tabs – Bleeding Through

CD, Sheet music, Poster

Do you like Turns Cold To The Touch? Share with your friends now
Bass TabsTabs
Riff 1 pt1
C#|-------------------|-------------------|
G#|-------------------|-------------------|
 E|-------------------|-------------------|
 B|-------------------|---------------(7)-|
F#|---8-8-5-7-7-4-(4)-|---8-8-5-7-7-4-----|
 B|-00-0-0-0-0-0-0----|-00-0-0-0-0-0-0----|
    .. . . . . . .      .. . . . . . .
Riff 1 pt2
C#|-------------------|-----------------|
G#|-------------------|-----------------|
 E|-------------------|-----------------|
 B|-------------------|-----------------|
F#|---8-8-5-7-7-4-(4)-|---8-8-0-6-5-4-3-|
 B|-00-0-0-0-0-0-0----|-00-0--0-6-5-4-3-|
    .. . . . . . .      .. .
Both guitars repeat riff 1
riff 2
C#|---------------------|-----------------------||
G#|---------------------|-----------------------||
 E|---------------------|-----------------------||
 B|---10-10-7-9-9-6-(6)-|---10-10-7-9-9-6--(14)-||
F#|---------------------|-----------------------||
 B|-00--0--0-0-0-0-0----|-00--0--0-0-0-0-0------||
    ..  .  . . . . .      ..  .  . . . . .
C#|---------------------|-------------------||
G#|---------------------|-------------------||
 E|---------------------|-------------------||
 B|---10-10-7-9-9-6-(6)-|---10-10-----------||
F#|---------------------|---------0-6-5-4-3-||
 B|-00--0--0-0-0-0-0----|-00--0---0-6-5-4-3-||
    ..  .  . . . . .      ..  .
riff 3
C#|----------------||
G#|----------------||
 E|----------------||
 B|----------------||
F#|----------------||
 B|2""""-1""-6"-5"-||

C#|------------------||
G#|------------------||
 E|------------------||
 B|------------------||
F#|------------------||
 B|2"""-4"-1""-6"-5"-||

C#|------------------||
G#|------------------||
 E|2"""-4"-1""-6"-5"-||
 B|------------------||
F#|------------------||
 B|------------------||

C#|------------------||
G#|5"""-6"-4""-9"-8"-||
 E|------------------||
 B|------------------||
F#|------------------||
 B|------------------||
riff 5 play 4 times
C#|------------------------------||
G#|------------------------------||
 E|------------------------------||
 B|------------------------------||
F#|-7-----6-----5"-----4"--------||
 B|---8-7"--7"-6"--6"-5"--5"-4"--||
riff 6 1st guitar play 4 times
C#|-----------------------------------||
G#|-----------------------------------||
 E|-----------------------------------||
 B|(7)------(6)------(5)------(4)-----||
F#|----8-7------7-6------6-5------5-4-||
 B|----8-7------7-6------6-5------5-4-||
riff 6 2nd guitar play 4 times
C#|-----------------------------------||
G#|-----------------------------------||
 E|-----------------------------------||
 B|-----------------------------------||
F#|(7)-8-7--(6)-7-6--(5)-6-5--(6)-5-4-||
 B|----8-7------7-6------6-5------5-4-||
Fill 1
C#|---------------||
G#|---------------||
 E|---------------||
 B|--(7) 1/2 bend-||
F#|---------------||
 B|---------------||
play riff 1 then to the scale type thingy.
Fill 2
C#-------------------------------------------------------------------||
G#|------------------------------------------------------------------||
 E|------------------------------------------------------------------||
 B|-------7-9-10---------9-11-12----------10-12-13----------12-14-15-||
F#|7-9-10--------9-10-12---------10-12-13----------12-14-15----------||
 B|------------------------------------------------------------------||
Fill 3
C#|------||
G#|------||
 E|------||
 B|-(14)-||
F#|------||
 B|------||
riff 7 play 4 times
C#|------------------------------------||
G#|------------------------------------||
 E|------------------------------13-12-||
 B|---------------0-7-8-10-12-11-------||
F#|0-00000-000-------------------------||
 B|0-00000-000-------------------------||
riff 8, play 8 times
C#|----------------------||
G#|----------------------||
 E|----------------13-12-||
 B|-0-7-8-10-12-11-------||
F#|----------------------||
 B|----------------------||

riff 9a clean part
C#|-----------0---------------0-----------------||
G#|-------0-1---1---------0-1---1---------------||
 E|-----2---------2-----2---------5-4-2-0-0h2-2-||
 B|---2---------------2-----------3-3-3-3-3---3-||
F#|-0---------------0---------------------------||
 B|---------------------------------------------||
riff 9b(also clean)
C#|-----------0---------------0-----------------||
G#|-------0-1---1---------0-1---1---------------||
 E|-----2---------2-----2---------5-4-7-5-4h5-5-||
 B|---2---------------2-----------3-3-3-3-3---3-||
F#|-0---------------0---------------------------||
 B|---------------------------------------------||

riff 9c
C#|--------------------------------||
G#|--------------------------------||
 E|-2-2-2-2-3-2--------2-2-2-2-0h2-||
 B|0-0-0-0------3-2---0-0-0-0------||
F#|--------------------------------||
 B|--------------------------------||
SOFT PART ORDER
riff
9a
9b
9c x2
9a
9b
9c x2
riff 10
C#|-----------------------------------------------------------------||
G#|--------------12----------------------12----15-(13)--------------||
 E|-----9-11-12-----12-11-9------9-11-12-----12---------------------||
 B|-----------------------------------------------------------------||
F#|-7-------------------------------3-------------------------------||
 B|-7-------------------------------3-------------------------------||
riff 11
C#|-----------------|-----------------|-----------------|---||
G#|-----------------|-----------------|-----------------|---||
 E|-----------------|-----------------|-----------------|---||
 B|-0-2-1-0-3-2-1-0-|-----------------|-----------------|-0-||
F#|-0-2-1-0-3-2-1-0-|-0-2-1-0-3-2-1-0-|-----------------|-0-||
 B|-----------------|-0-2-1-0-3-2-1-0-|-0-2-1-0-3-2-1-0-|-0-||





Comments


Popular Bleeding Through tabs & chords
Line In The Sand 2 Bass Tabs
Turns Cold To The Touch Bass Tabs
For Love And Failing Tabs
Kill To Believe Tabs
On Wings Of Lead Tabs
On Wings Of Lead 1 Tabs
Return To Sender Intro 1 Tabs
Revenge I Seek Tabs
Revenge I Seek 1 Tabs
Rise Tabs


Song lyrics



↑ Back to top | Tablatures and chords are parodies/interpretations of the original songs. You may use it for private study, scholarship, research or language learning purposes only
© 2014 AZChords.com Contact us | Privacy policy | DMCA | Add/correct tabs | Request tabs | Top 50 tabs