>
 >
Turns Cold To The Touch

Turns Cold To The Touch Bass Tabs

Bleeding Through - Turns Cold To The Touch chords, tabs, tablatures, lyrics

Guitar lessons | Add/correct | Request | Top 50 tabs Artists:  A B C D E F G H I J K L M N O P Q R S T U V W X Y Z 0-9

Turns Cold To The Touch Bass Tabs – Bleeding Through

CD, Sheet music, Poster

Do you like Turns Cold To The Touch? Share with your friends now
Bass TabsTabs
-------------------------------------------------------------------------------
	      Turns Cold to the Touch for bass - Bleeding Through
-------------------------------------------------------------------------------


Great song. Noticed a lack of good Bleeding Through bass tabs on this 
site so I tabbed some out how I play them. Sorry I don't have the 
times for the different parts of the song I don't have it to listen
to right now it's just me tabbing it out with a bass. 
You'll need a five string bass for this. 

Tuning: Drop B

Part A riff 1                   riff 2
G|----------------------------|----------------------------------|
D|----------------------------|----------------------------------|
A|----------------------------|----------------------------------|
E|----------------------------|-10-10-7-9-9-6-6--10-10-7-9-9-6---|
B|0--00000--00000--00000-06543|0----------------0--------------7-|

riff 3
G|------------------------------|
D|------------------------------|
A|------------------------------|
E|-10-10-7-9-9-6-6--10-10-------|
B|0----------------0------06543-|


Part B
G|------------------------|--------------------------------------|
D|------------------------|--------------------------------------|
A|------------------------|--------------------------------------|
E|------------------------|--------------------------------------|
B|2--------1--------6----5|--2----3----1--------6----5-----------|

Part C
G|---------------------------------------|
D|---------------------------------------|
A|---------------------------------------|
E|-8-----7-----6-----5-------------------|
B|---7-6---6-5---5-4---4-3---------------|

Goes back to Part A, riffs 2&3.

Part D (Ryan plays it this way)
G|--------------------------------------------------|
D|--------------------------------------------------|
A|--------------------------------------------------|
E|--------------------------------------------------|
B|-0-5-7-8-10-0-7-8-10-12-0-10-12-13-12-10-12-13-15-|

or you could play it the way I do:

G|---------------------------------------|
D|---------------------------------------|
A|-------------------------------------5-|
E|---------5-------5-7---5-7-8-7-5-7-8---|
B|-0-5-7-8---0-7-8-----0-----------------|


Part E      riff 1	   riff 2
G|----------------------|------------------|
D|----------------------|------------------|
A|----------------------|----------7---6---|
E|----------------------|--0-2-3-----8---7-|
B|-0---0-0-0-0-0---0-0-0|--------0---------|
                            


Before Part F let first open B note ring
G|---------------|
D|---------------|
A|---------------|
E|---------------|
B|-0-----------0-|


Part F ( Clean Guitars)
G|-----------------------------------------------------------|
D|-----------------------------------------------------------|
A|-----------------------------------------------------------|
E|2---------------2------------------------------------------|
B|-------3---------------3------0------3------0------3-------|


Part G
G|-----------------------------------------------|
D|-----------------------------------------------|
A|-----------------------------------------------|
E|-----------------------------------------------|
B|7--------------3--------------7--------------3-|


Part H
G|-----------------|
D|-----------------|
A|-----------------|
E|-----------------|
B|-000-2-1-0-3-2-1-|

Enjoy!


| /  slide up
| \  slide down
| h  hammer-on
| p  pull-off
| ~  vibrato
| +  harmonic
| x  Mute note
===============================================================================





Comments


Popular Bleeding Through tabs & chords
Murder By Numbers Bass Tabs
Truth Bass Tabs
Love Lost In A Hail Of Gunfire Drum Tabs
Love In Slow Motion Tabs
Love Lost In A Hail Of Gunfire Tabs
Love Lost In A Hail Of Gunfire 2 Tabs
On Wings Of Lead 1 Tabs
Return To Sender Intro 1 Tabs
Revenge I Seek 1 Tabs
Tragedy Of Empty Streets Tabs


Song lyrics



↑ Back to top | Tablatures and chords are parodies/interpretations of the original songs. You may use it for private study, scholarship, research or language learning purposes only
© 2014 AZChords.com Contact us | Privacy policy | DMCA | Add/correct tabs | Request tabs | Top 50 tabs