>
 >
On Wings Of Lead 1

On Wings Of Lead 1 Guitar Tabs

Bleeding Through - On Wings Of Lead 1 chords, tabs, tablatures, lyrics

Guitar lessons | Add/correct | Request | Top 50 tabs Artists:  A B C D E F G H I J K L M N O P Q R S T U V W X Y Z 0-9

On Wings Of Lead 1 Guitar Tabs – Bleeding Through

CD, Sheet music, Poster

Do you like On Wings Of Lead 1? Share with your friends now
TabsTabs v2
BLEEDING THROUGH 
ON WINGS OF LEAD

D  :----------------|--------------------|----------------|----------------|----------------|
A  :----------------|--------------------|----------------|----------------|----------------|
F  :----------------|--------------------|----------------|----------------|----------------|
C  :7---5-5---3-2-2-|3-------------------|7---5-5---3-2-2-|----------------|7---5-5---3-2-2-|
G  :8---7-7---5-3-3-|5-------------------|8---7-7---5-3-3-|8---8-5-5---5-5-|8---7-7---5-3-3-|
C  :----------------|----0-0-0-0-0-0-0-0-|----------------|8---8-5-5---5-5-|----------------|

                                                                           
D  :--------------------|----------------|----------------|----------------|
A  :--------------------|----------------|----------------|----------------|
F  :--------------------|----------------|----------------|----------------|
C  :3-------------------|7---5-5---3-2-2-|----------------|7---5-5---3-2-2-|
G  :5-------------------|8---7-7---5-3-3-|8---8-5-5---5-5-|8---7-7---5-3-3-|
C  :----0-0-0-0-0-0-0-0-|----------------|8---8-5-5---5-5-|----------------|

                                                                           
D  :--------------------|----------------|----------------|----------------|
A  :--------------------|----------------|----------------|----------------|
F  :--------------------|----------------|----------------|----------------|
C  :3-------------------|7---5-5---3-2-2-|----------------|7---5-5---3-2-2-|
G  :5-------------------|8---7-7---5-3-3-|8---8-5-5---5-5-|8---7-7---5-3-3-|
C  :----0-0-0-0-0-0-0-0-|----------------|8---8-5-5---5-5-|----------------|

                                              

D  :--------------------|----------------|----------------||*----------------|----------------|
A  :--------------------|----------------|----------------||*----------------|----------------|
F  :--------------------|----------------|----------------|| ----------------|----------------|
C  :3-------------------|7---5-5---3-2-2-|----------------|| ----------------|----------------|
G  :5-------------------|8---7-7---5-3-3-|8---8-5-5---5-5-|| 0---------------|----------------|
C  :----0-0-0-0-0-0-0-0-|----------------|8---8-5-5---5-5-|| 0---------------|----------------|


                 
D  :----------------|----------------|----------------|----------------|----------------|
A  :----------------|----------------|----------------|----------------|----------------|
F  :----------------|----------------|----------------|----------------|----------------|
C  :----------------|----------------|----------------|----------------|----------------|
G  :----------------|----------------|----------------|----------------|----------------|
C  :----------------|----------------|----------------|----------------|----------------|

                                                                                        
D  :----------------|----------------|----------------|----------------|----------------|
A  :----------------|----------------|----------------|----------------|----------------|
F  :----------------|----------------|----------------|----------------|----------------|
C  :----------------|----------------|----------------|----------------|----------------|
G  :----------------|----------------|----------------|----------------|----------------|
C  :----------------|----------------|----------------|----------------|----------------|

                                                                                          
D  :----------------|----------------|----------------|----------------|------------------|
A  :----------------|----------------|----------------|----------------|------------------|
F  :----------------|----------------|----------------|----------------|------------------|
C  :----------------|----------------|----------------|----------------|----------7-0-----|
G  :----------------|----------------|----------------|----------------|------------------|
C  :----------------|----------------|----------------|----------------|0-0-0-0-0-----0-0-|

                                                                                    
D  :----------------|-------------------------------|-------------------------------|
A  :----------------|-------------------------------|-------------------------------|
F  :----------------|-------------------------------|-------------------------------|
C  :8-0-----7-0-----|-------------------------------|-------------------------------|
G  :----------------|----------------5-5-5-5-5-5-5-5|----------------4-4-4-4-4-4-4-4|
C  :----0-0-----0-0-|8-8-8-8-8-8-8-8----------------|7-7-7-7-7-7-7-7----------------|

                                                                       
D  :------------------|----------------|-------------------------------|
A  :------------------|----------------|-------------------------------|
F  :------------------|----------------|-------------------------------|
C  :----------7-0-----|8-0-----7-0-----|-------------------------------|
G  :------------------|----------------|----------------5-5-5-5-5-5-5-5|
C  :0-0-0-0-0-----0-0-|----0-0-----0-0-|8-8-8-8-8-8-8-8----------------|

                                                                       
D  :-------------------------------|------------------|----------------|
A  :-------------------------------|------------------|----------------|
F  :-------------------------------|------------------|----------------|
C  :-------------------------------|----------7-0-----|8-0-----7-0-----|
G  :----------------4-4-4-4-4-4-4-4|------------------|----------------|
C  :7-7-7-7-7-7-7-7----------------|0-0-0-0-0-----0-0-|----0-0-----0-0-|

                                                                                      
D  :-------------------------------|-------------------------------|------------------|
A  :-------------------------------|-------------------------------|------------------|
F  :-------------------------------|-------------------------------|------------------|
C  :-------------------------------|-------------------------------|----------7-0-----|
G  :----------------5-5-5-5-5-5-5-5|----------------4-4-4-4-4-4-4-4|------------------|
C  :8-8-8-8-8-8-8-8----------------|7-7-7-7-7-7-7-7----------------|0-0-0-0-0-----0-0-|

                                                                                    
D  :----------------|-------------------------------|-------------------------------|
A  :----------------|-------------------------------|-------------------------------|
F  :----------------|-------------------------------|-------------------------------|
C  :8-0-----7-0-----|-------------------------------|-------------------------------|
G  :----------------|----------------5-5-5-5-5-5-5-5|----------------4-4-4-4-4-4-4-4|
C  :----0-0-----0-0-|8-8-8-8-8-8-8-8----------------|7-7-7-7-7-7-7-7----------------|

 
D  :--------------------|--------------------|----------------|----------------|
A  :--------------------|--------------------|----------------|----------------|
F  :--------14-14-14-14-|--------15-15-15-15-|--------7-7-7-7-|--------6-6-6-6-|
C  :0-0-0-0-------------|0-0-0-0-------------|----------------|----------------|
G  :0-0-0-0-12-12-12-12-|0-0-0-0-13-13-13-13-|8-8-8-8-5-5-5-5-|7-7-7-7-4-4-4-4-|
C  :0-0-0-0-------------|0-0-0-0-------------|8-8-8-8---------|7-7-7-7---------|


D  :--------------------|--------------------|----------------|----------------|
A  :--------------------|--------------------|----------------|----------------|
F  :--------14-14-14-14-|--------15-15-15-15-|--------7-7-7-7-|--------6-6-6-6-|
C  :0-0-0-0-------------|0-0-0-0-------------|----------------|----------------|
G  :0-0-0-0-12-12-12-12-|0-0-0-0-13-13-13-13-|8-8-8-8-5-5-5-5-|7-7-7-7-4-4-4-4-|
C  :0-0-0-0-------------|0-0-0-0-------------|8-8-8-8---------|7-7-7-7---------|

                                                                                
D  :----------------|----------------|------------------------|-----------------|
A  :----------------|----------------|------------------------|-----------------|
F  :----------------|----------------|------------------------|-----------------|
C  :----------------|----------------|------------------------|-----------------|
G  :8-8-8-8-8-8-8-8-|8-8-8-8-8-8-8-8-|10-10-10-10-10-10-10-10-|11---------------|
C  :8-8-8-8-8-8-8-8-|8-8-8-8-8-8-8-8-|10-10-10-10-10-10-10-10-|11---*-----------|

                                                                                            
D  :----------------|--------------------|----------------|----------------|----------------|
A  :----------------|--------------------|----------------|----------------|----------------|
F  :----------------|--------------------|----------------|----------------|----------------|
C  :7---5-5---3-2-2-|3-------------------|7---5-5---3-2-2-|----------------|7---5-5---3-2-2-|
G  :8---7-7---5-3-3-|5-------------------|8---7-7---5-3-3-|8---8-5-5---5-5-|8---7-7---5-3-3-|
C  :----------------|----0-0-0-0-0-0-0-0-|----------------|8---8-5-5---5-5-|----------------|

                                                                           
D  :--------------------|----------------|----------------|----------------|
A  :--------------------|----------------|----------------|----------------|
F  :--------------------|----------------|----------------|----------------|
C  :3-------------------|7---5-5---3-2-2-|----------------|7---5-5---3-2-2-|
G  :5-------------------|8---7-7---5-3-3-|8---8-5-5---5-5-|8---7-7---5-3-3-|
C  :----0-0-0-0-0-0-0-0-|----------------|8---8-5-5---5-5-|----------------|

                                                                           
D  :--------------------|----------------|----------------|----------------|
A  :--------------------|----------------|----------------|----------------|
F  :--------------------|----------------|----------------|----------------|
C  :3-------------------|7---5-5---3-2-2-|----------------|7---5-5---3-2-2-|
G  :5-------------------|8---7-7---5-3-3-|8---8-5-5---5-5-|8---7-7---5-3-3-|
C  :----0-0-0-0-0-0-0-0-|----------------|8---8-5-5---5-5-|----------------|

                                                                                            
D  :--------------------|----------------|----------------|----------------|----------------|
A  :--------------------|----------------|----------------|----------------|----------------|
F  :--------------------|----------------|----------------|----------------|----------------|
C  :3-------------------|7---5-5---3-2-2-|----------------|0-------0---0---|0---0---8-------|
G  :5-------------------|8---7-7---5-3-3-|8---8-5-5---5---|0-------0---0---|0---0---8-------|
C  :----0-0-0-0-0-0-0-0-|----------------|8---8-5-5---5---|0-------0---0---|0---0---8-------|

                                                                                        
D  :----------------|----------------|----------------|------------5---|----------------|
A  :----------------|----------------|----------------|----------------|----------------|
F  :----------------|----------------|----------------|------------2---|----------------|
C  :8---8---8---8---|5-------5---5---|5---5---3-------|3---3---2-------|0-------0---0---|
G  :8---8---8---8---|5-------5---5---|5---5---3-------|3---------------|0-------0---0---|
C  :8---8---8---8---|5-------5---5---|5---5---3-------|3---------------|0-------0---0---|

                                                                                        
D  :----------------|----------------|----------------|----------------|------------5---|
A  :----------------|----------------|----------------|----------------|----------------|
F  :----------------|----------------|----------------|----------------|------------2---|
C  :0---0---8-------|8---8---8---8---|5-------5---5---|5---5---3-------|3---3---2-------|
G  :0---0---8-------|8---8---8---8---|5-------5---5---|5---5---3-------|3---------------|
C  :0---0---8-------|8---8---8---8---|5-------5---5---|5---5---3-------|3---------------|

                                                                                        
D  :----------------|----------------|----------------|----------------|----------------|
A  :----------------|----------------|----------------|----------------|----------------|
F  :----------------|----------------|----------------|----------------|----------------|
C  :0-------0---0---|0---0---8-------|8---8---8---8---|5-------5---5---|5---5---3-------|
G  :0-------0---0---|0---0---8-------|8---8---8---8---|5-------5---5---|5---5---3-------|
C  :0-------0---0---|0---0---8-------|8---8---8---8---|5-------5---5---|5---5---3-------|

                                                                                        
D  :------------5---|----------------|----------------|----------------|----------------|
A  :----------------|----------------|----------------|----------------|----------------|
F  :------------2---|----------------|----------------|----------------|----------------|
C  :3---3---2-------|0-------0---0---|0---0---8-------|8---8---8---8---|5-------5---8---|
G  :3---------------|0-------0---0---|0---0---8-------|8---8---8---8---|5-------5---5---|
C  :3---------------|0-------0---0---|0---0---8-------|8---8---8---8---|5-------5---5---|

                                                                         
D  :----------------|------------5---|------------------|----------------|
A  :----------------|----------------|------------------|----------------|
F  :----------------|------------2---|------------------|----------------|
C  :7---5---3-------|3---3---2-------|----------7-0-----|8-0-----7-0-----|
G  :5---5---3-------|3---------------|------------------|----------------|
C  :5---5---3-------|3---------------|0-0-0-0-0-----0-0-|----0-0-----0-0-|

                                                                                      
D  :-------------------------------|-------------------------------|------------------|
A  :-------------------------------|-------------------------------|------------------|
F  :-------------------------------|-------------------------------|------------------|
C  :-------------------------------|-------------------------------|----------7-0-----|
G  :----------------5-5-5-5-5-5-5-5|----------------4-4-4-4-4-4-4-4|------------------|
C  :8-8-8-8-8-8-8-8----------------|7-7-7-7-7-7-7-7----------------|0-0-0-0-0-----0-0-|

                                                                                    
D  :----------------|-------------------------------|-------------------------------|
A  :----------------|-------------------------------|-------------------------------|
F  :----------------|-------------------------------|-------------------------------|
C  :8-0-----7-0-----|-------------------------------|-------------------------------|
G  :----------------|----------------5-5-5-5-5-5-5-5|----------------4-4-4-4-4-4-4-4|
C  :----0-0-----0-0-|8-8-8-8-8-8-8-8----------------|7-7-7-7-7-7-7-7----------------|

                                                                       
D  :------------------|----------------|-------------------------------|
A  :------------------|----------------|-------------------------------|
F  :------------------|----------------|-------------------------------|
C  :----------7-0-----|8-0-----7-0-----|-------------------------------|
G  :------------------|----------------|----------------5-5-5-5-5-5-5-5|
C  :0-0-0-0-0-----0-0-|----0-0-----0-0-|8-8-8-8-8-8-8-8----------------|

                                                                       
D  :-------------------------------|------------------|----------------|
A  :-------------------------------|------------------|----------------|
F  :-------------------------------|------------------|----------------|
C  :-------------------------------|----------7-0-----|8-0-----7-0-----|
G  :----------------4-4-4-4-4-4-4-4|------------------|----------------|
C  :7-7-7-7-7-7-7-7----------------|0-0-0-0-0-----0-0-|----0-0-----0-0-|

                                                                                               
D  :-------------------------------|-------------------------------|---------------------------|
A  :-------------------------------|-------------------------------|---------------------------|
F  :-------------------------------|-------------------------------|---------------------------|
C  :-------------------------------|-------------------------------|----7-7-7-7-3-3-3-3-0-0-0-0|
G  :----------------5-5-5-5-5-5-5-5|----------------4-4-4-4-4-4-4-4|---------------------------|
C  :8-8-8-8-8-8-8-8----------------|7-7-7-7-7-7-7-7----------------|0--------------------------|

                                                                                               
D  :-------------------------------|-------------------------------|---------------------------|
A  :-------------------------------|-------------------------------|---------------------------|
F  :-------------------------------|-------------------------------|---------------------------|
C  :8-8-8-8-5-5-5-5-0-0-0-0-7-7-7-7|3-3-3-3-0-0-0-0-5-5-5-5-2-2-2-2|----7-7-7-7-3-3-3-3-0-0-0-0|
G  :-------------------------------|-------------------------------|---------------------------|
C  :-------------------------------|-------------------------------|0--------------------------|

                                                                                               
D  :-------------------------------|-------------------------------|---------------------------|
A  :-------------------------------|-------------------------------|---------------------------|
F  :-------------------------------|-------------------------------|---------------------------|
C  :8-8-8-8-5-5-5-5-0-0-0-0-7-7-7-7|3-3-3-3-0-0-0-0-5-5-5-5-2-2-2-2|----7-7-7-7-3-3-3-3-0-0-0-0|
G  :-------------------------------|-------------------------------|---------------------------|
C  :-------------------------------|-------------------------------|0--------------------------|

                                                                                               
D  :-------------------------------|-------------------------------|---------------------------|
A  :-------------------------------|-------------------------------|---------------------------|
F  :-------------------------------|-------------------------------|---------------------------|
C  :8-8-8-8-5-5-5-5-0-0-0-0-7-7-7-7|3-3-3-3-0-0-0-0-5-5-5-5-2-2-2-2|----7-7-7-7-3-3-3-3-0-0-0-0|
G  :-------------------------------|-------------------------------|---------------------------|
C  :-------------------------------|-------------------------------|0--------------------------|

                                                                                    
D  :-------------------------------|-------------------------------|----------------|
A  :-------------------------------|-------------------------------|----------------|
F  :-------------------------------|-------------------------------|----------------|
C  :8-8-8-8-5-5-5-5-0-0-0-0-7-7-7-7|3-3-3-3-0-0-0-0-5-5-5-5-2-2-2-2|----------------|
G  :-------------------------------|-------------------------------|0---3-0-3-5-3-0-|
C  :-------------------------------|-------------------------------|0---3-0-3-5-3-0-|

                                                                                   
D  :----------------|----------------|----------------------------|----------------|
A  :----------------|----------------|----------------------------|----------------|
F  :----------------|----------------|----------------------------|----------------|
C  :----------------|----------------|7-7-7-7-3-3-3-3-5-5-5-5-2---|----------------|
G  :3-5-3-0-6-5-3-0-|----3-0-3-5-3-0-|--------------------------0-|----3-0-3-5-3-0-|
C  :3-5-3-0-6-5-3-0-|----3-0-3-5-3-0-|--------------------------0-|----3-0-3-5-3-0-|

                                                                                   
D  :----------------|----------------|----------------------------|----------------|
A  :----------------|----------------|----------------------------|----------------|
F  :----------------|----------------|----------------------------|----------------|
C  :----------------|----------------|7-7-7-7-3-3-3-3-8-8-8-8-5---|----------------|
G  :3-5-3-0-6-5-3-0-|----3-0-3-5-3-0-|--------------------------0-|----3-0-3-5-3-0-|
C  :3-5-3-0-6-5-3-0-|----3-0-3-5-3-0-|--------------------------0-|----3-0-3-5-3-0-|

                                                                                   
D  :----------------|----------------|----------------------------|----------------|
A  :----------------|----------------|----------------------------|----------------|
F  :----------------|----------------|----------------------------|----------------|
C  :----------------|----------------|7-7-7-7-3-3-3-3-5-5-5-5-2---|----------------|
G  :3-5-3-0-6-5-3-0-|----3-0-3-5-3-0-|--------------------------0-|----3-0-3-5-3-0-|
C  :3-5-3-0-6-5-3-0-|----3-0-3-5-3-0-|--------------------------0-|----3-0-3-5-3-0-|

                                                                                      
D  :----------------|----------------|-------------------------------|----------------|
A  :----------------|----------------|-------------------------------|----------------|
F  :----------------|----------------|-------------------------------|----------------|
C  :----------------|----------------|7-7-7-7-3-3-3-3-8-8-8-8-5-5-5-5|0-------0---0---|
G  :3-5-3-0-6-5-3-0-|----3-0-3-5-3-0-|-------------------------------|0-------0---0---|
C  :3-5-3-0-6-5-3-0-|----3-0-3-5-3-0-|-------------------------------|0-------0---0---|

                                                                                        
D  :----------------|----------------|----------------|----------------|------------5---|
A  :----------------|----------------|----------------|----------------|----------------|
F  :----------------|----------------|----------------|----------------|------------2---|
C  :0---0---8-------|8---8---8---8---|5-------5---5---|5---5---3-------|3---3---2-------|
G  :0---0---8-------|8---8---8---8---|5-------5---5---|5---5---3-------|3---------------|
C  :0---0---8-------|8---8---8---8---|5-------5---5---|5---5---3-------|3---------------|

                                                                                        
D  :----------------|----------------|----------------|----------------|----------------|
A  :----------------|----------------|----------------|----------------|----------------|
F  :----------------|----------------|----------------|----------------|----------------|
C  :0-------0---0---|0---0---8-------|8---8---8---8---|5-------5---5---|5---5---3-------|
G  :0-------0---0---|0---0---8-------|8---8---8---8---|5-------5---5---|5---5---3-------|
C  :0-------0---0---|0---0---8-------|8---8---8---8---|5-------5---5---|5---5---3-------|

                                                                                        
D  :------------5---|----------------|----------------|----------------|----------------|
A  :----------------|----------------|----------------|----------------|----------------|
F  :------------2---|----------------|----------------|----------------|----------------|
C  :3---3---2-------|0-------0---0---|0---0---8-------|8---8---8---8---|5-------5---5---|
G  :3---------------|0-------0---0---|0---0---8-------|8---8---8---8---|5-------5---5---|
C  :3---------------|0-------0---0---|0---0---8-------|8---8---8---8---|5-------5---5---|

                                                                                        
D  :----------------|------------5---|----------------|----------------|----------------|
A  :----------------|----------------|----------------|----------------|----------------|
F  :----------------|------------2---|----------------|----------------|----------------|
C  :5---5---3-------|3---3---2-------|0-------0---0---|0---0---8-------|8---8---8---8---|
G  :5---5---3-------|3---------------|0-------0---0---|0---0---8-------|8---8---8---8---|
C  :5---5---3-------|3---------------|0-------0---0---|0---0---8-------|8---8---8---8---|

                                                      I think  I actual  ly d id r elativel 
D  :----------------|----------------|------------5---|-------------8---|12--------10-------|
A  :----------------|----------------|----------------|--------10-------|-----10------------|
F  :----------------|----------------|------------2---|-----------------|-------------------|
C  :5-------5---8---|7---5---3-------|3---3---2-------|-----------------|-------------------|
G  :5-------5---5---|5---5---3-------|3---------------|0----------------|-------------------|
C  :5-------5---5---|5---5---3-------|3---------------|0----------------|-------------------|

   y well on th e  so  lo; it s ound s ac cura te f or the m  ost  part .         
D  :------------10-10-|10------------12---|---------13-------|13---15---17---18---|
A  :------------------|---------10--------|----10------------|--------------------|
F  :------------------|-------------------|------------------|--------------------|
C  :------------------|-------------------|------------------|--------------------|
G  :------------------|-------------------|------------------|--------------------|
C  :------------------|-------------------|------------------|--------------------|

                                                                                          
D  :18---17---15--13-15---|----------10-------|10-8-10-----------|10----------------------|
A  :----------------------|----11-13----------|------------------|---13-11-10-11-10-13-11-|
F  :----------------------|-------------------|------------------|------------------------|
C  :----------------------|-------------------|------------------|------------------------|
G  :----------------------|-------------------|------------------|------------------------|
C  :----------------------|-------------------|------------------|------------------------|



D  :------------------------|------------------|22-24-------------|--------(22)-------|
A  :10----10----11-10-------|------------------|------------------|-------------------|
F  :---12----12-------12-10-|12---10---9---7---|------------------|-------------------|
C  :------------------------|------------------|------------------|-------------------|
G  :------------------------|------------------|------------------|-------------------|
C  :------------------------|------------------|------------------|-------------------|


D  :----------------|----------------|----------------|----------------|----------------|
A  :----------------|----------------|----------------|----------------|----------------|
F  :----------------|----------------|----------------|----------------|----------------|
C  :----------------|----------------|----------------|----------------|----------------|
G  :----------------|----------------|----------------|----------------|----------------|
C  :----------------|----------------|----------------|----------------|----------------|

                                                                                        
D  :----------------|----------------|----------------|----------------|----------------|
A  :----------------|----------------|----------------|----------------|----------------|
F  :----------------|----------------|----------------|----------------|----------------|
C  :----------------|----------------|----------------|----------------|----------------|
G  :----------------|----------------|----------------|----------------|----------------|
C  :----------------|----------------|----------------|----------------|----------------|

                                                                                        
D  :----------------|----------------|----------------|----------------|----------------|
A  :----------------|----------------|----------------|----------------|----------------|
F  :----------------|----------------|----------------|----------------|----------------|
C  :----------------|----------------|----------------|----------------|----------------|
G  :----------------|----------------|----------------|----------------|----------------|
C  :----------------|----------------|----------------|----------------|----------------|

                                                                                        
D  :----------------|----------------|----------------|----------------|----------------|
A  :----------------|----------------|----------------|----------------|----------------|
F  :----------------|----------------|----------------|----------------|----------------|
C  :----------------|----------------|----------------|----------------|----------------|
G  :----------------|----------------|----------------|----------------|----------------|
C  :----------------|----------------|----------------|----------------|----------------|

                                                                                        
D  :----------------|----------------|----------------|----------------|----------------|
A  :----------------|----------------|----------------|----------------|----------------|
F  :----------------|----------------|----------------|----------------|----------------|
C  :----------------|----------------|----------------|----------------|----------------|
G  :----------------|----------------|----------------|----------------|----------------|
C  :----------------|----------------|----------------|----------------|----------------|

                                                                                            
D  :----------------|----------------|--------------------|----------------|----------------|
A  :----------------|----------------|--------------------|----------------|----------------|
F  :----------------|----------------|--------------------|----------------|----------------|
C  :----------------|7---5-5---3-2-2-|3-------------------|7---5-5---3-2-2-|----------------|
G  :----------------|8---7-7---5-3-3-|5-------------------|8---7-7---5-3-3-|8---8-5-5---5-5-|
C  :----------------|----------------|----0-0-0-0-0-0-0-0-|----------------|8---8-5-5---5-5-|

                                                                                            
D  :----------------|--------------------|----------------|----------------|----------------|
A  :----------------|--------------------|----------------|----------------|----------------|
F  :----------------|--------------------|----------------|----------------|----------------|
C  :7---5-5---3-2-2-|3-------------------|7---5-5---3-2-2-|----------------|7---5-5---3-2-2-|
G  :8---7-7---5-3-3-|5-------------------|8---7-7---5-3-3-|8---8-5-5---5-5-|8---7-7---5-3-3-|
C  :----------------|----0-0-0-0-0-0-0-0-|----------------|8---8-5-5---5-5-|----------------|

                                                                           
D  :--------------------|----------------|----------------|----------------|
A  :--------------------|----------------|----------------|----------------|
F  :--------------------|----------------|----------------|----------------|
C  :3-------------------|7---5-5---3-2-2-|----------------|7---5-5---3-2-2-|
G  :5-------------------|8---7-7---5-3-3-|8---8-5-5---5-5-|8---7-7---5-3-3-|
C  :----0-0-0-0-0-0-0-0-|----------------|8---8-5-5---5-5-|----------------|

                                                                                            
D  :--------------------|----------------|----------------|----------------|----------------|
A  :--------------------|----------------|----------------|----------------|----------------|
F  :--------------------|----------------|----------------|----------------|----------------|
C  :3-------------------|7---5-5---3-2-2-|----------------|0-------0---0---|0---0---8-------|
G  :5-------------------|8---7-7---5-3-3-|8---8-5-5---5---|0-------0---0---|0---0---8-------|
C  :----0-0-0-0-0-0-0-0-|----------------|8---8-5-5---5---|0-------0---0---|0---0---8-------|

                                                                                        
D  :----------------|----------------|----------------|------------5---|----------------|
A  :----------------|----------------|----------------|----------------|----------------|
F  :----------------|----------------|----------------|------------2---|----------------|
C  :8---8---8---8---|5-------5---5---|5---5---3-------|3---3---2-------|0-------0---0---|
G  :8---8---8---8---|5-------5---5---|5---5---3-------|3---------------|0-------0---0---|
C  :8---8---8---8---|5-------5---5---|5---5---3-------|3---------------|0-------0---0---|

                                                                                        
D  :----------------|----------------|----------------|----------------|------------5---|
A  :----------------|----------------|----------------|----------------|----------------|
F  :----------------|----------------|----------------|----------------|------------2---|
C  :0---0---8-------|8---8---8---8---|5-------5---5---|5---5---3-------|3---3---2-------|
G  :0---0---8-------|8---8---8---8---|5-------5---5---|5---5---3-------|3---------------|
C  :0---0---8-------|8---8---8---8---|5-------5---5---|5---5---3-------|3---------------|

                                                                                        
D  :----------------|----------------|----------------|----------------|----------------|
A  :----------------|----------------|----------------|----------------|----------------|
F  :----------------|----------------|----------------|----------------|----------------|
C  :0-------0---0---|0---0---8-------|8---8---8---8---|5-------5---5---|5---5---3-------|
G  :0-------0---0---|0---0---8-------|8---8---8---8---|5-------5---5---|5---5---3-------|
C  :0-------0---0---|0---0---8-------|8---8---8---8---|5-------5---5---|5---5---3-------|

                                                                                        
D  :------------5---|----------------|----------------|----------------|----------------|
A  :----------------|----------------|----------------|----------------|----------------|
F  :------------2---|----------------|----------------|----------------|----------------|
C  :3---3---2-------|0-------0---0---|0---0---8-------|8---8---8---8---|5-------5---8---|
G  :3---------------|0-------0---0---|0---0---8-------|8---8---8---8---|5-------5---5---|
C  :3---------------|0-------0---0---|0---0---8-------|8---8---8---8---|5-------5---5---|

                                                      
D  :----------------|------------5---|----------------|
A  :----------------|----------------|----------------|
F  :----------------|------------2---|----------------|
C  :7---5---3-------|3---3---2-------|0---------------|
G  :5---5---3-------|3---------------|0---------------|
C  :5---5---3-------|3---------------|0---------------|





Comments


Popular Bleeding Through tabs & chords
Hemlock Society Bass Tabs
Love Lost In A Hail Of Gunfire 1 Bass Tabs
Love Lost In A Hail Of Gunfire Drum Tabs
Love In Slow Motion Tabs
On Wings Of Intro Tabs
Return To Sender Intro 1 Tabs
Revenge I Seek 1 Tabs
Rise Tabs
This Is Love This Is Murderous Intro Tabs
Truth Tabs


Song lyrics



↑ Back to top | Tablatures and chords are parodies/interpretations of the original songs. You may use it for private study, scholarship, research or language learning purposes only
© 2014 AZChords.com Contact us | Privacy policy | DMCA | Add/correct tabs | Request tabs | Top 50 tabs