» » »

Bled, We Are The Industry Bass tabs (ver.1)

Artists:  A B C D E F G H I J K L M N O P Q R S T U V W X Y Z # 

We Are The Industry Bass tabs (ver.1)

Bled Tabs
 Rating:
4/5 (4 votes)
We Are The Industry lessons Tabs too difficult? Try these video lessons and learn fast
1
                
WE ARE THE INDUSTRY (Bassline)
As recorded by The Bled
(From the 2003 Album PASS THE FLASK)

	

Words and Music by The Bled
Arranged by The Bled

Gtr I (D G C F) - 'Bass'

   Verse
    Q=181
    C                                   D
   4/4
    Gtr I
    E E E E E E E E   E E E E E E E E   E E E E E E E E   E E E E E E E E
||------------------|-----------------|-----------------|------------------|
||o-----------------|-----------------|-----------------|------------------|
||o-3-3-3-3-3-3-3-3-|-3-3-3-3-3-3-3-3-|-5-5-5-5-5-5-5-5-|-5-5-5-5-5-5-5-5--|
||------------------|-----------------|-----------------|------------------|


  E
  E E E E Q  E E   E E Q  E E E E   E E Q  Q  Q
|----------------|----------------|--------------|
|----------------|----------------|--------------|
|-7-7-7-7----7-7-|-7-7----7-7-7-7-|---7-7--7--7--|
|----------------|----------------|--------------|


  C                                   D
  E E E E E E E E   E E E E E E E E   E E E E E E E E   E E E E E E E E
|-----------------|-----------------|-----------------|-----------------|
|-----------------|-----------------|-----------------|-----------------|
|-3-3-3-3-3-3-3-3-|-3-3-3-3-3-3-3-3-|-5-5-5-5-5-5-5-5-|-5-5-5-5-5-5-5-5-|
|-----------------|-----------------|-----------------|-----------------|


  1.
  G   E F#   G     E F#   G   E F#     G   E F#E F#
  E E E E Q  E E   E E Q  E E E E   Q  E E E E E E
|----------------|----------------|----------------|
|----------------|----------------|----------------|
|----------------|----------------|----------------|
|-3-3-0-2----3-3-|-0-2----3-3-0-2-|----3-3-0-2-0-2-|


  G   E F#   G     E F#   G   E F#     E
  E E E E Q  E E   E E Q  E E E E   Q  H.
|----------------|----------------|-----------||
|----------------|----------------|----------o||
|----------------|----------------|----------o||
|-3-3-0-2----3-3-|-0-2----3-3-0-2-|----0------||


    2.
    G   E F#   G     E F#   G   E F#     G   E F#E F#
    E E E E Q  E E   E E Q  E E E E   Q  E E E E E E
||-----------------|----------------|----------------|
||o----------------|----------------|----------------|
||o----------------|----------------|----------------|
||--3-3-0-2----3-3-|-0-2----3-3-0-2-|----3-3-0-2-0-2-|


                                    1.                 2.
  G   E F#   G     E F#   G   E F#     G   E F#E F#
  E E E E Q  E E   E E Q  E E E E   Q  E E E E E E     W
|----------------|----------------|-----------------||------|
|----------------|----------------|----------------o||------|
|----------------|----------------|----------------o||------|
|-3-3-0-2----3-3-|-0-2----3-3-0-2-|----3-3-0-2-0-2--||------|


 Bridge
  N.C.
  Wx12
|---------|
|---------|
|---------|
|---------|


   Chorus
    E                 F#
    W          +H     H      +W
||-----------|-------------|--------|
||o----------|-------------|--------|
||o----------|-------------|--------|
||--0--------|-(0)----2----|-(2)----|


  B                 G  A    G  F# G  F#
  W          +H     Q  Q    Q  Q  Q  Q   4x
|----------|--------------|--------------||
|----------|--------------|-------------o||
|----------|--------------|-------------o||
|-7--------|-(7)----3--5--|-3--2--3--2---||


  E                 G
  W          +H     H      +W
|----------|-------------|--------|
|----------|-------------|--------|
|----------|-------------|--------|
|-0--------|-(0)----3----|-(3)----|


  F#
  E E E E E E E E   E E E E E E E E   E E E E E E E E
|-----------------|-----------------|-----------------|
|-----------------|-----------------|---------x-x-x-x-|
|-----------------|-----------------|---------x-x-x-x-|
|-2-2-2-2---2-2-2-|-2-2---2-2-2-2-2-|---2-2-2-x-x-x-x-|


   Verse
    C                                   D
    E E E E E E E E   E E E E E E E E   E E E E E E E E   E E E E E E E E
||------------------|-----------------|-----------------|------------------|
||o-----------------|-----------------|-----------------|------------------|
||o-3-3-3-3-3-3-3-3-|-3-3-3-3-3-3-3-3-|-5-5-5-5-5-5-5-5-|-5-5-5-5-5-5-5-5--|
||------------------|-----------------|-----------------|------------------|


  E
  E E E E Q  E E   E E Q  E E E E   E E Q  Q  Q
|----------------|----------------|--------------|
|----------------|----------------|--------------|
|-7-7-7-7----7-7-|-7-7----7-7-7-7-|---7-7--7--7--|
|----------------|----------------|--------------|


  C                                   D
  E E E E E E E E   E E E E E E E E   E E E E E E E E   E E E E E E E E
|-----------------|-----------------|-----------------|-----------------|
|-----------------|-----------------|-----------------|-----------------|
|-3-3-3-3-3-3-3-3-|-3-3-3-3-3-3-3-3-|-5-5-5-5-5-5-5-5-|-5-5-5-5-5-5-5-5-|
|-----------------|-----------------|-----------------|-----------------|


  1.
  G   E F#   G     E F#   G   E F#     G   E F#E F#
  E E E E Q  E E   E E Q  E E E E   Q  E E E E E E
|----------------|----------------|----------------|
|----------------|----------------|----------------|
|----------------|----------------|----------------|
|-3-3-0-2----3-3-|-0-2----3-3-0-2-|----3-3-0-2-0-2-|


  G   E F#   G     E F#   G   E F#     E
  E E E E Q  E E   E E Q  E E E E   Q  H.
|----------------|----------------|-----------||
|----------------|----------------|----------o||
|----------------|----------------|----------o||
|-3-3-0-2----3-3-|-0-2----3-3-0-2-|----0------||


    2.                                1.,2.,3.           4.
    G   E F#   G     E F#   G   E F#     G   E F#E F#       E
    E E E E Q  E E   E E Q  E E E E   Q  E E E E E E  4x Q  H.
||-----------------|----------------|-----------------||----------|
||o----------------|----------------|----------------o||----------|
||o----------------|----------------|----------------o||----------|
||--3-3-0-2----3-3-|-0-2----3-3-0-2-|----3-3-0-2-0-2--||----0-----|


  E
  +W           +W           +W           +W           +W           +W
|------------|------------|------------|------------|------------|--------|
|------------|------------|------------|------------|------------|--------|
|------------|------------|------------|------------|------------|--------|
|-(0)--------|-(0)--------|-(0)--------|-(0)--------|-(0)--------|-(0)----|


 Interlude
  N.C.
  Wx33
|---------|
|---------|
|---------|
|---------|


 "We Are The Industry.."
  N.C.
  Wx12
|---------|
|---------|
|---------|
|---------|


    A
    H.      Q    +H     H      +Q   H.
||--2-------2--|-(2)----2----|-(2)--2-----|
||o------------|-------------|------------|
||o------------|-------------|------------|
||-------------|-------------|------------|


  B
  H.      Q    +H     H      +Q   H.
|-4-------4--|-(4)----4----|-(4)--4-----|
|------------|-------------|------------|
|------------|-------------|------------|
|------------|-------------|------------|


  1.
  E
  H.      Q    +H     H      +Q   H.
|------------|-------------|------------|
|-2-------2--|-(2)----2----|-(2)--2-----|
|------------|-------------|------------|
|------------|-------------|------------|


  E
  H.      Q    +H     H      +Q   H.
|------------|-------------|-------------||
|-2-------2--|-(2)----2----|-(2)--2-----o||
|------------|-------------|------------o||
|------------|-------------|-------------||


 "The birth and the death.."
  2.
  E
  H.      Q    +H     H      +Q   H.
|------------|-------------|------------|
|-2-------2--|-(2)----2----|-(2)--2-----|
|------------|-------------|------------|
|------------|-------------|------------|


  E
  H.      Q    +H     H      +Q   H.
|------------|-------------|------------|
|-2-------2--|-(2)----2----|-(2)--2-----|
|------------|-------------|------------|
|------------|-------------|------------|


  A
  H.      Q    +H     H      +Q   H.
|-2-------2--|-(2)----2----|-(2)--2-----|
|------------|-------------|------------|
|------------|-------------|------------|
|------------|-------------|------------|


  B
  H.      Q    +H     H      +Q   H.
|-4-------4--|-(4)----4----|-(4)--4-----|
|------------|-------------|------------|
|------------|-------------|------------|
|------------|-------------|------------|


  C
  Q  Q  Q  Q    Q  Q  Q  Q    Q  Q  Q  Q
|-5--5--5--5--|-5--5--5--5--|-5--5--5--5--|
|-------------|-------------|-------------|
|-------------|-------------|-------------|
|-------------|-------------|-------------|


  B
  Q  Q  Q  Q    Q  Q  Q  Q    Q  Q  Q  Q
|-4--4--4--4--|-4--4--4--4--|-4--4--4--4--|
|-------------|-------------|-------------|
|-------------|-------------|-------------|
|-------------|-------------|-------------|


  C
  Q  Q  Q  Q    Q  Q  Q  Q    Q  Q  Q  Q
|-5--5--5--5--|-5--5--5--5--|-5--5--5--5--|
|-------------|-------------|-------------|
|-------------|-------------|-------------|
|-------------|-------------|-------------|


  D
  Q  Q  Q  Q    Q  Q  Q  Q    Q  Q  Q  Q
|-7--7--7--7--|-7--7--7--7--|-7--7--7--7--|
|-------------|-------------|-------------|
|-------------|-------------|-------------|
|-------------|-------------|-------------|


  A
  Q  Q  Q  Q    Q  Q  Q  Q    Q  Q  Q  Q
|-------------|-------------|-------------|
|-------------|-------------|-------------|
|-0--0--0--0--|-0--0--0--0--|-0--0--0--0--|
|-------------|-------------|-------------|


  B
  Q  Q  Q  Q    Q  Q  Q  Q    Q  Q  Q  Q
|-------------|-------------|-------------|
|-------------|-------------|-------------|
|-2--2--2--2--|-2--2--2--2--|-2--2--2--2--|
|-------------|-------------|-------------|


  C
  Q  Q  Q  Q    Q  Q  Q  Q    Q  Q  Q  Q
|-------------|-------------|-------------|
|-------------|-------------|-------------|
|-3--3--3--3--|-3--3--3--3--|-3--3--3--3--|
|-------------|-------------|-------------|


  D
  Q  Q  Q  Q    Q  Q  Q  Q    Q  Q  Q  Q
|-------------|-------------|-------------|
|-------------|-------------|-------------|
|-5--5--5--5--|-5--5--5--5--|-5--5--5--5--|
|-------------|-------------|-------------|


   Outro
    E
    Q  Q  Q  Q    Q  Q  Q  Q    Q  Q  Q  Q
||--------------|-------------|-------------|
||o-2--2--2--2--|-2--2--2--2--|-2--2--2--2--|
||o-------------|-------------|-------------|
||--------------|-------------|-------------|


  F#
  Q  Q  Q  Q    Q  Q  Q  Q    Q  Q  Q  Q
|-------------|-------------|-------------|
|-4--4--4--4--|-4--4--4--4--|-4--4--4--4--|
|-------------|-------------|-------------|
|-------------|-------------|-------------|


  G
  Q  Q  Q  Q    Q  Q  Q  Q    Q  Q  Q  Q
|-------------|-------------|-------------|
|-5--5--5--5--|-5--5--5--5--|-5--5--5--5--|
|-------------|-------------|-------------|
|-------------|-------------|-------------|


  A
  Q  Q  Q  Q    Q  Q  Q  Q    Q  Q  Q  Q
|-------------|-------------|--------------||
|-7--7--7--7--|-7--7--7--7--|-7--7--7--7--o||
|-------------|-------------|-------------o||
|-------------|-------------|--------------||


 Static
  N.C.
  Wx25
|---------*|
|---------*|
|---------*|
|---------*|



Duration Legend
---------------
W - whole; H - half; Q - quarter; E - 8th; S - 16th; T - 32nd; X - 64th; a - acciaccatura
+ - note tied to previous; . - note dotted; .. - note double dotted
Uncapitalized letters represent notes that are staccato (1/2 duration)
Irregular groupings are notated above the duration line
Duration letters will always appear directly above the note/fret number it represents the
duration for.  Duration letters with no fret number below them represent rests.  Multi-
bar rests are notated in the form Wxn, where n is the number of bars to rest for.  Low
melody durations appear below the staff

Tablature Legend
----------------
 h   - hammer-on
 p   - pull-off
 b   - bend
 pb  - pre-bend
 r   - bend release (if no number after the r, then release immediately)
 /\  - slide into or out of (from/to "nowhere")
 s   - legato slide
 S   - shift slide
 - natural harmonic
[n]  - artificial harmonic
n(n) - tapped harmonic
 ~   - vibrato
 tr  - trill
 T   - tap
 TP  - trem. picking
 PM  - palm muting
\n/  - tremolo bar dip; n = amount to dip
 \n  - tremolo bar down
 n/  - tremolo bar up
/n\  - tremolo bar inverted dip
 =   - hold bend; also acts as connecting device for hammers/pulls
 <> - volume swell (louder/softer)
 x   - on rhythm slash represents muted slash
 o   - on rhythm slash represents single note slash

Misc Legend
-----------
 |  - bar
||  - double bar
||o - repeat start
o|| - repeat end
*|  - double bar (ending)
 :  - bar (freetime)
 $  - Segno
 &  - Coda
Tempo markers -  = BPM(8/16=s8/s16), where s8 = swing 8ths, s16 = swing 16ths
            
Submit corrections

comments powered by Disqus
↑ Back to top | Bled Bass for We Are The Industry. Lyrics for acoustic guitar and electric guitar. 1 Tablatures and chords are parodies/interpretations of the original songs. You may use it for private study, scholarship, research or language learning purposes only