>
 >
We Are The Industry

We Are The Industry Guitar Tabs

Bled - We Are The Industry chords, tabs, tablatures, lyrics

Guitar lessons | Add/correct | Request | Top 50 tabs Artists:  A B C D E F G H I J K L M N O P Q R S T U V W X Y Z 0-9

We Are The Industry Guitar Tabs – Bled

CD, Sheet music, Poster

Do you like We Are The Industry? Share with your friends now
Bass TabsTabs
WE ARE THE INDUSTRY
                             As recorded by The Bled
                      (From the 2003 Album PASS THE FLASK)

Words and Music by The Bled
Arranged by The Bled

Gtr I (D G C F A D) - 'Distortion'
Gtr II (D G C F A D) - 'Distortion'
Gtr III (D G C F A D) - 'Distortion'
Gtr IV (D G C F A D) - 'Clean'
Gtr V (D G C F A D) - 'Clean'
Gtr VI (D G C F A D) - 'Static'

   Verse
    Q=181
    C5
   4/4
    Gtr I
     Q    Q    Q    Q      Q     Q    Q    Q
||--15---14--------15---|-14---------15---14---|
||o-----------15--------|-------15-------------|
||----------------------|----------------------|
||----------------------|----------------------|
||o---------------------|----------------------|
||----------------------|----------------------|
|
|   Gtr II
|    E E  E E  E E  E E    E  E  E E  E E  E E
||----------------------|----------------------|
||o---------------------|----------------------|
||---5-5--5-5--5-5--5-5-|--5--5--5-5--5-5--5-5-|
||---5-5--5-5--5-5--5-5-|--5--5--5-5--5-5--5-5-|
||o--3-3--3-3--3-3--3-3-|--3--3--3-3--3-3--3-3-|
||----------------------|----------------------|
|
|   Gtr III
|    W                    +W
||----------------------|----------------------|
||o---------------------|----------------------|
||---5------------------|-(5)------------------|
||----------------------|----------------------|
||o--3------------------|-(3)------------------|
||----------------------|----------------------|


  D5
   H.            Q      +H         H
|-17------------15---|-(15)-------14--------|
|--------------------|----------------------|
|--------------------|----------------------|
|--------------------|----------------------|
|--------------------|----------------------|
|--------------------|----------------------|
|
|  E  E E E E E  E E     E  E E E  E E E E
|--------------------|----------------------|
|--------------------|----------------------|
|--7--7-7-7-7-7--7-7-|---7--7-7-7--7-7-7-7--|
|--7--7-7-7-7-7--7-7-|---7--7-7-7--7-7-7-7--|
|--5--5-5-5-5-5--5-5-|---5--5-5-5--5-5-5-5--|
|--------------------|----------------------|
|
|  W                    +W
|--------------------|----------------------|
|--------------------|----------------------|
|--7-----------------|--(7)-----------------|
|--------------------|----------------------|
|--5-----------------|--(5)-----------------|
|--------------------|----------------------|


  E5
   >
   W                      +W                       +W
|-12-------------------|-(12)-------------------|-(12)----------------|
|----------------------|------------------------|---------------------|
|----------------------|------------------------|---------------------|
|----------------------|------------------------|---------------------|
|----------------------|------------------------|---------------------|
|----------------------|------------------------|---------------------|
|
|  E  E  E  E Q   E  E     E   E Q   E  E  E  E     E   E  Q   Q   Q
|----------------------|------------------------|---------------------|
|----------------------|------------------------|---------------------|
|-19-19-19-19----19-19-|--19--19----12-12-12-12-|------12-17--16--12--|
|----------------------|------------------------|---------------------|
|-17-17-17-17----17-17-|--17--17----10-10-10-10-|------10-15--14--10--|
|----------------------|------------------------|---------------------|
|
|                                                       PM
|  E  E  E  E Q   E  E     E   E Q   E  E  E  E     E   E  Q   Q   Q
|----------------------|------------------------|---------------------|
|----------------------|------------------------|---------------------|
|--9--9--9--9-----9--9-|---9---9-----9--9--9--9-|----------9---9---9--|
|--9--9--9--9-----9--9-|---9---9-----9--9--9--9-|-------9--9---9---9--|
|--7--7--7--7-----7--7-|---7---7-----7--7--7--7-|-------7--7---7---7--|
|----------------------|------------------------|---------------------|


  C5
 4/4
   Q    Q    Q    Q      Q    Q    Q    Q
|-15---14--------15---|-14--------15---14---|
|-----------15--------|------15-------------|
|---------------------|---------------------|
|---------------------|---------------------|
|---------------------|---------------------|
|---------------------|---------------------|
|
|  E E  E E  E E  E E    E E  E E  E E  E E
|---------------------|---------------------|
|---------------------|---------------------|
|--5-5--5-5--5-5--5-5-|--5-5--5-5--5-5--5-5-|
|--5-5--5-5--5-5--5-5-|--5-5--5-5--5-5--5-5-|
|--3-3--3-3--3-3--3-3-|--3-3--3-3--3-3--3-3-|
|---------------------|---------------------|
|
|  E E  E E  E E  E E    E E  E E  E E  E E
|---------------------|---------------------|
|---------------------|---------------------|
|--9-9--9-9--9-9--9-9-|--9-9--9-9--9-9--9-9-|
|---------------------|---------------------|
|--7-7--7-7--7-7--7-7-|--7-7--7-7--7-7--7-7-|
|---------------------|---------------------|


  D5
   Q    Q    Q    Q      H        H
|------15---14--------|-15-------17-------|
|-15-------------15---|-------------------|
|---------------------|-------------------|
|---------------------|-------------------|
|---------------------|-------------------|
|---------------------|-------------------|
|
|  E E  E E  E E  E E    E E E E  E E E E
|---------------------|-------------------|
|---------------------|-------------------|
|--7-7--7-7--7-7--7-7-|--7-7-7-7--7-7-7-7-|
|--7-7--7-7--7-7--7-7-|--7-7-7-7--7-7-7-7-|
|--5-5--5-5--5-5--5-5-|--5-5-5-5--5-5-5-5-|
|---------------------|-------------------|
|
|  E E  E E  E E  E E    E E E E  E E E E
|---------------------|-------------------|
|---------------------|-------------------|
|--9-9--9-9--9-9--9-9-|--9-9-9-9--9-9-9-9-|
|---------------------|-------------------|
|--7-7--7-7--7-7--7-7-|--7-7-7-7--7-7-7-7-|
|---------------------|-------------------|


  1.
  G5  E5F#5  G5    E5F#5  G5  E5F#5    G5  E5F#E5F#5
  Gtrs II, III
  E E E E Q  E E   E E Q  E E E E   Q  E E E E E E
|----------------|----------------|----------------|
|----------------|----------------|----------------|
|----------------|----------------|----------------|
|----------------|----------------|----------------|
|-5-5-2-4----5-5-|-2-4----5-5-2-4-|----5-5-2-4-2-4-|
|-3-3-0-2----3-3-|-0-2----3-3-0-2-|----3-3-0-2-0-2-|


  G5  E5F#5  G5    E5F#5  G5  E5F#5    E5
  E E E E Q  E E   E E Q  E E E E   Q  H.
|----------------|----------------|-----------||
|----------------|----------------|----------o||
|----------------|----------------|-----------||
|----------------|----------------|-----------||
|-5-5-2-4----5-5-|-2-4----5-5-2-4-|----2-----o||
|-3-3-0-2----3-3-|-0-2----3-3-0-2-|----0------||


    2.
    G5   E5 F#5   G5     E5 F#5   G5   E5 F#5     G5   E5 F#E5 F#5
    Gtr I
     Q    Q    Q   Q      Q    Q   Q    Q      Q   Q    Q    Q
||---------------------|--------------------|--------------------|
||o--------------------|--------------------|--------------------|
||---------------------|--------------------|--------------------|
||--10---10---10--10---|-10---10--10---10---|-10--10---10---10---|
||o--------------------|--------------------|--------------------|
||---------------------|--------------------|--------------------|
|
|   Gtrs II, III
|    E E  E E  Q   E E    E E  Q   E E  E E    Q   E E  E E  E E
||---------------------|--------------------|--------------------|
||o--------------------|--------------------|--------------------|
||---------------------|--------------------|--------------------|
||---------------------|--------------------|--------------------|
||o--5-5--2-4------5-5-|--2-4------5-5--2-4-|------5-5--2-4--2-4-|
||---3-3--0-2------3-3-|--0-2------3-3--0-2-|------3-3--0-2--0-2-|


                                            1.                    2.
  G5   E5 F#5   G5     E5 F#5   G5   E5 F#5     G5    E5F#E5F#5
   Q    Q    Q   Q      Q    Q   Q    Q      Q   H.               W
|--------------------|--------------------|-----17-------------||------|
|-12---12---12--12---|-12---12--12---12---|-12----------------o||------|
|--------------------|--------------------|--------------------||------|
|--------------------|--------------------|--------------------||------|
|--------------------|--------------------|-------------------o||------|
|--------------------|--------------------|--------------------||------|
|
|  E E  E E  Q   E E    E E  Q   E E  E E    Q   E  E E E E E     W
|--------------------|--------------------|--------------------||------|
|--------------------|--------------------|-------------------o||------|
|--------------------|--------------------|--------------------||------|
|--------------------|--------------------|--------------------||------|
|--5-5--2-4------5-5-|--2-4------5-5--2-4-|------5--5-2-4-2-4-o||------|
|--3-3--0-2------3-3-|--0-2------3-3--0-2-|------3--3-0-2-0-2--||------|


 Bridge
  N.C.
  Gtr I
   
   W                    +W
|--------------------|----------------------|
|--------------------|----------------------|
|--------------------|----------------------|
|-----------------|-()----------------|
|--------------------|----------------------|
|--------------------|----------------------|
|
| Gtr IV
|  Q    Q    Q    Q      Q      Q    Q   Q
|------17------------|--17--------------17--|
|-12-------(12)--12--|--------(12)--12------|
|--------------------|----------------------|
|--------------------|----------------------|
|--------------------|----------------------|
|--------------------|----------------------|


   +W                     +W
|----------------------|----------------------|
|----------------------|----------------------|
|----------------------|----------------------|
|-()----------------|-()----------------|
|----------------------|----------------------|
|----------------------|----------------------|
|
|   Q     Q   Q    Q       Q     Q    Q    Q
|------------17--------|--------17------------|
|-(12)---12------(12)--|--12--------(12)--12--|
|----------------------|----------------------|
|----------------------|----------------------|
|----------------------|----------------------|
|----------------------|----------------------|


   +W                     +W
|----------------------|----------------------|
|----------------------|----------------------|
|----------------------|----------------------|
|-()----------------|-()----------------|
|----------------------|----------------------|
|----------------------|----------------------|
|
|   Q      Q    Q   Q      Q     Q   Q    Q
|--17--------------17--|------------17--------|
|--------(12)--12------|-(12)---12------(12)--|
|----------------------|----------------------|
|----------------------|----------------------|
|----------------------|----------------------|
|----------------------|----------------------|


   +W                     +W
|----------------------|----------------------|
|----------------------|----------------------|
|----------------------|----------------------|
|-()----------------|-()----------------|
|----------------------|----------------------|
|----------------------|----------------------|
|
|   Q     Q    Q    Q      Q      Q    Q   Q
|--------17------------|--17--------------17--|
|--12--------(12)--12--|--------(12)--12------|
|----------------------|----------------------|
|----------------------|----------------------|
|----------------------|----------------------|
|----------------------|----------------------|


    W                    W
|---------------------|-------------------|
|---------------------|-------------------|
|---------------------|-------------------|
|---------------------|-------------------|
|---------------------|-------------------|
|---------------------|-------------------|
|
|   Q    Q   Q    Q      Q   Q    Q    Q
|-----------17--------|-----17------------|
|-(12)--12------(12)--|-12------(12)--12--|
|---------------------|-------------------|
|---------------------|-------------------|
|---------------------|-------------------|
|---------------------|-------------------|


   W                    W
|-------------------|---------------------|
|-------------------|---------------------|
|-------------------|---------------------|
|-------------------|---------------------|
|-------------------|---------------------|
|-------------------|---------------------|
|
|  Q    Q    Q   Q      Q    Q   Q    Q
|-17------------17--|-----------17--------|
|-----(12)--12------|-(12)--12------(12)--|
|-------------------|---------------------|
|-------------------|---------------------|
|-------------------|---------------------|
|-------------------|---------------------|


   Chorus
    E5                     F#5
    Gtr IV
     H.       Q     +H      H       +Q     H.
||-----------17--|-(17)----------|--------15------|
||o-12-----------|---------12----|-(12)-----------|
||---------------|---------------|----------------|
||---------------|---------------|----------------|
||o--------------|---------------|----------------|
||---------------|---------------|----------------|
|
|   Gtrs II, III
|    W              +H      H       +Q     H.
||---------------|---------------|-------()----|
||o--------------|---------------|-------()----|
||---------------|---------------|----------------|
||---------------|---------------|----------------|
||o--2-----------|--(2)-----4----|--(4)---(4)-----|
||---0-----------|--(0)-----2----|--(2)---(2)-----|


  B5                     G5  A5   G5    F#5  G5 F#5
   H.       Q     +H      H        +Q    H.         4x
|----------14--|-(14)-----------|-------10----------||
|-12-----------|---------12-----|-(12)-------------o||
|--------------|----------------|-------------------||
|--------------|----------------|-------------------||
|--------------|----------------|------------------o||
|--------------|----------------|-------------------||
|
|  W              +H      Q  Q      Q    Q   Q  Q   4x
|--------------|----------------|-------------------||
|--------------|----------------|------------------o||
|--------------|----------------|-------------------||
|--------------|----------------|-------------------||
|--9-----------|--(9)-----5--7--|---5----4---5--4--o||
|--7-----------|--(7)-----3--5--|---3----2---3--2---||


  E5                  G5
   >
   W           +W             +W
|-----------|--------------|---------|
|-12--------|-(12)---------|-(12)----|
|-----------|--------------|---------|
|-----------|--------------|---------|
|-----------|--------------|---------|
|-----------|--------------|---------|
|
|  W           +H     H       +W
|-----------|--------------|---------|
|-----------|--------------|---------|
|-----------|--------------|---------|
|-----------|--------------|---------|
|--2--------|--(2)----5----|--(5)----|
|--0--------|--(0)----3----|--(3)----|


  F#5
  W                 W                 W
|-----------------|-----------------|-----------------|
|-----------------|-----------------|-----------------|
|-----------------|-----------------|-----------------|
|-----------------|-----------------|-----------------|
|-----------------|-----------------|-----------------|
|-----------------|-----------------|-----------------|
|
|           PM            PM
| E E E E E E E E   E E E E E E E E   E E E E E E E E
|-----------------|-----------------|-----------------|
|-----------------|-----------------|-----------------|
|-----------------|-----------------|---------x-x-x-x-|
|-----------------|-----------------|---------x-x-x-x-|
|-4-4-4-4-----4-4-|-4-4-----4-4-4-4-|-----4-4-x-x-x-x-|
|-2-2-2-2---2-2-2-|-2-2---2-2-2-2-2-|---2-2-2-x-x-x-x-|


   Verse
    C5
   4/4
    Gtr I
     Q    Q    Q    Q      Q     Q    Q    Q
||--15---14--------15---|-14---------15---14---|
||o-----------15--------|-------15-------------|
||----------------------|----------------------|
||----------------------|----------------------|
||o---------------------|----------------------|
||----------------------|----------------------|
|
|   Gtr II
|    E E  E E  E E  E E    E  E  E E  E E  E E
||----------------------|----------------------|
||o---------------------|----------------------|
||---5-5--5-5--5-5--5-5-|--5--5--5-5--5-5--5-5-|
||---5-5--5-5--5-5--5-5-|--5--5--5-5--5-5--5-5-|
||o--3-3--3-3--3-3--3-3-|--3--3--3-3--3-3--3-3-|
||----------------------|----------------------|
|
|   Gtr III
|    W                    +W
||----------------------|----------------------|
||o---------------------|----------------------|
||---5------------------|-(5)------------------|
||----------------------|----------------------|
||o--3------------------|-(3)------------------|
||----------------------|----------------------|


  D5
   H.            Q      +H         H
|-17------------15---|-(15)-------14--------|
|--------------------|----------------------|
|--------------------|----------------------|
|--------------------|----------------------|
|--------------------|----------------------|
|--------------------|----------------------|
|
|  E  E E E E E  E E     E  E E E  E E E E
|--------------------|----------------------|
|--------------------|----------------------|
|--7--7-7-7-7-7--7-7-|---7--7-7-7--7-7-7-7--|
|--7--7-7-7-7-7--7-7-|---7--7-7-7--7-7-7-7--|
|--5--5-5-5-5-5--5-5-|---5--5-5-5--5-5-5-5--|
|--------------------|----------------------|
|
|  W                    +W
|--------------------|----------------------|
|--------------------|----------------------|
|--7-----------------|--(7)-----------------|
|--------------------|----------------------|
|--5-----------------|--(5)-----------------|
|--------------------|----------------------|


  E5
   >
   W                      +W                       +W
|-12-------------------|-(12)-------------------|-(12)----------------|
|----------------------|------------------------|---------------------|
|----------------------|------------------------|---------------------|
|----------------------|------------------------|---------------------|
|----------------------|------------------------|---------------------|
|----------------------|------------------------|---------------------|
|
|  E  E  E  E Q   E  E     E   E Q   E  E  E  E     E   E  Q   Q   Q
|----------------------|------------------------|---------------------|
|----------------------|------------------------|---------------------|
|-19-19-19-19----19-19-|--19--19----12-12-12-12-|------12-17--16--12--|
|----------------------|------------------------|---------------------|
|-17-17-17-17----17-17-|--17--17----10-10-10-10-|------10-15--14--10--|
|----------------------|------------------------|---------------------|
|
|                                                       PM
|  E  E  E  E Q   E  E     E   E Q   E  E  E  E     E   E  Q   Q   Q
|----------------------|------------------------|---------------------|
|----------------------|------------------------|---------------------|
|--9--9--9--9-----9--9-|---9---9-----9--9--9--9-|----------9---9---9--|
|--9--9--9--9-----9--9-|---9---9-----9--9--9--9-|-------9--9---9---9--|
|--7--7--7--7-----7--7-|---7---7-----7--7--7--7-|-------7--7---7---7--|
|----------------------|------------------------|---------------------|


  C5
 4/4
   Q    Q    Q    Q      Q    Q    Q    Q
|-15---14--------15---|-14--------15---14---|
|-----------15--------|------15-------------|
|---------------------|---------------------|
|---------------------|---------------------|
|---------------------|---------------------|
|---------------------|---------------------|
|
|  E E  E E  E E  E E    E E  E E  E E  E E
|---------------------|---------------------|
|---------------------|---------------------|
|--5-5--5-5--5-5--5-5-|--5-5--5-5--5-5--5-5-|
|--5-5--5-5--5-5--5-5-|--5-5--5-5--5-5--5-5-|
|--3-3--3-3--3-3--3-3-|--3-3--3-3--3-3--3-3-|
|---------------------|---------------------|
|
|  E E  E E  E E  E E    E E  E E  E E  E E
|---------------------|---------------------|
|---------------------|---------------------|
|--9-9--9-9--9-9--9-9-|--9-9--9-9--9-9--9-9-|
|---------------------|---------------------|
|--7-7--7-7--7-7--7-7-|--7-7--7-7--7-7--7-7-|
|---------------------|---------------------|


  D5
   Q    Q    Q    Q      H        H
|------15---14--------|-15-------17-------|
|-15-------------15---|-------------------|
|---------------------|-------------------|
|---------------------|-------------------|
|---------------------|-------------------|
|---------------------|-------------------|
|
|  E E  E E  E E  E E    E E E E  E E E E
|---------------------|-------------------|
|---------------------|-------------------|
|--7-7--7-7--7-7--7-7-|--7-7-7-7--7-7-7-7-|
|--7-7--7-7--7-7--7-7-|--7-7-7-7--7-7-7-7-|
|--5-5--5-5--5-5--5-5-|--5-5-5-5--5-5-5-5-|
|---------------------|-------------------|
|
|  E E  E E  E E  E E    E E E E  E E E E
|---------------------|-------------------|
|---------------------|-------------------|
|--9-9--9-9--9-9--9-9-|--9-9-9-9--9-9-9-9-|
|---------------------|-------------------|
|--7-7--7-7--7-7--7-7-|--7-7-7-7--7-7-7-7-|
|---------------------|-------------------|


  1.
  G5  E5F#5  G5    E5F#5  G5  E5F#5    G5  E5F#E5F#5
  Gtrs II, III
  E E E E Q  E E   E E Q  E E E E   Q  E E E E E E
|----------------|----------------|----------------|
|----------------|----------------|----------------|
|----------------|----------------|----------------|
|----------------|----------------|----------------|
|-5-5-2-4----5-5-|-2-4----5-5-2-4-|----5-5-2-4-2-4-|
|-3-3-0-2----3-3-|-0-2----3-3-0-2-|----3-3-0-2-0-2-|


  G5  E5F#5  G5    E5F#5  G5  E5F#5    E5
  E E E E Q  E E   E E Q  E E E E   Q  H.
|----------------|----------------|-----------||
|----------------|----------------|----------o||
|----------------|----------------|-----------||
|----------------|----------------|-----------||
|-5-5-2-4----5-5-|-2-4----5-5-2-4-|----2-----o||
|-3-3-0-2----3-3-|-0-2----3-3-0-2-|----0------||


    2.
    G5  E5F#5  G5    E5F#5  G5  E5F#5    G5  E5F#E5F#5
    Gtr I
    W                W                W
||-----------------|----------------|-----------------||
||o----------------|----------------|----------------o||
||-----------------|----------------|-----------------||
||-----------------|----------------|-----------------||
||o----------------|----------------|----------------o||
||-----------------|----------------|-----------------||
|
|   Gtrs II, III
|   E E E E Q  E E   E E Q  E E E E   Q  E E E E E E
||-----------------|----------------|-----------------||
||o----------------|----------------|----------------o||
||-----------------|----------------|-----------------||
||-----------------|----------------|-----------------||
||o-5-5-2-4----5-5-|-2-4----5-5-2-4-|----5-5-2-4-2-4-o||
||--3-3-0-2----3-3-|-0-2----3-3-0-2-|----3-3-0-2-0-2--||


  G5  E5F#5  G5    E5F#5  G5   E5 F#5     G5   E5 F#E5 F#5
  Q   Q   Q  Q     Q   Q   Q    Q      Q   Q    Q    Q
|----------------|------------------|--------------------|
|----------------|------------------|--------------------|
|-9---9---9--9---|-9---9--11---11---|-11--11---11---11---|
|----------------|------------------|--------------------|
|-7---7---7--7---|-7---7---9----9---|--9---9----9----9---|
|----------------|------------------|--------------------|
|
| E E E E Q  E E   E E Q   E E  E E    Q   E E  E E  E E
|----------------|------------------|--------------------|
|----------------|------------------|--------------------|
|----------------|------------------|--------------------|
|----------------|------------------|--------------------|
|-5-5-2-4----5-5-|-2-4-----5-5--2-4-|------5-5--2-4--2-4-|
|-3-3-0-2----3-3-|-0-2-----3-3--0-2-|------3-3--0-2--0-2-|


  G5   E5 F#5   G5     E5 F#5   G5   E5 F#5     E5
   Q    Q    Q   Q      Q    Q   Q    Q      Q   Q    Q   Q
|--------------------|--------------------|------------------|
|--------------------|--------------------|------------------|
|-12---12---12--14---|-14---14--16---16---|-16--16---16--16--|
|--------------------|--------------------|------------------|
|-10---10---10--12---|-12---12--14---14---|-14--14---14--14--|
|--------------------|--------------------|------------------|
|
|  E E  E E  Q   E E    E E  Q   E E  E E    Q   H.
|--------------------|--------------------|------------------|
|--------------------|--------------------|------------------|
|--------------------|--------------------|------------------|
|--------------------|--------------------|------------------|
|--5-5--2-4------5-5-|--2-4------5-5--2-4-|------2-----------|
|--3-3--0-2------3-3-|--0-2------3-3--0-2-|------0-----------|


  E5
   >
   W            +W            +W            +W            +W            +W
|------------|-------------|-------------|-------------|-------------|---------|
|------------|-------------|-------------|-------------|-------------|---------|
|-16---------|-(16)--------|-(16)--------|-(16)--------|-(16)--------|-(16)----|
|------------|-------------|-------------|-------------|-------------|---------|
|-14---------|-(14)--------|-(14)--------|-(14)--------|-(14)--------|-(14)----|
|------------|-------------|-------------|-------------|-------------|---------|
|
|  >
| +W            +W            +W            +W            +W            +W
|------------|-------------|-------------|-------------|-------------|---------|
|------------|-------------|-------------|-------------|-------------|---------|
|------------|-------------|-------------|-------------|-------------|---------|
|------------|-------------|-------------|-------------|-------------|---------|
|-(2)--------|--(2)--------|--(2)--------|--(2)--------|--(2)--------|--(2)----|
|-(0)--------|--(0)--------|--(0)--------|--(0)--------|--(0)--------|--(0)----|


   Interlude
    (C)
    Gtr V
    Q  E E Q  Q    E E Q  Q  E E   Q  Q  Q  Q
||-----3---------|-3---------3---|-------------|
||o------5-------|---5---------5-|-------5-----|
||--5------5--5--|-----5--5------|-5--5-----5--|
||---------------|---------------|-------------|
||o--------------|---------------|-------------|
||---------------|---------------|-------------|


  (Em/B)
  Q  E E Q  Q    E E Q  Q  E E   Q  Q  Q  Q
|----3---------|-3---------3---|-------------|
|------5-------|---5---------5-|-------5-----|
|-4------4--4--|-----4--4------|-4--4-----4--|
|--------------|---------------|-------------|
|--------------|---------------|-------------|
|--------------|---------------|-------------|


  (C)
  Q  E E Q  Q    E E Q  Q  E E   Q  Q  Q  Q
|----3---------|-3---------3---|-------------|
|------5-------|---5---------5-|-------5-----|
|-5------5--5--|-----5--5------|-5--5-----5--|
|--------------|---------------|-------------|
|--------------|---------------|-------------|
|--------------|---------------|-------------|


  (Em)
  Q  E E  Q   Q    E E  Q   Q  E E    Q   Q  Q  Q
|----3-----------|-3-----------3---|----------------||
|------5---------|---5-----------5-|---------5-----o||
|--------(4)-----|-----(4)---------|-(4)------------||
|-2-------2---2--|------2---2------|--2---2-----2---||
|----------------|-----------------|---------------o||
|----------------|-----------------|----------------||


    (Fmaj7sus2)
    Q  E E  Q   Q    E E  Q   Q  E E    Q   Q  Q  Q
||-----3-----------|-3-----------3---|---------------|
||o------5---------|---5-----------5-|---------5-----|
||---------(5)-----|-----(5)---------|-(5)-----------|
||--3-------3---3--|------3---3------|--3---3-----3--|
||o----------------|-----------------|---------------|
||-----------------|-----------------|---------------|


  1.
  (Em)
  Q  E E  Q   Q    E E  Q   Q  E E    Q   Q  Q  Q
|----3-----------|-3-----------3---|----------------||
|------5---------|---5-----------5-|---------5-----o||
|--------(4)-----|-----(4)---------|-(4)------------||
|-2-------2---2--|------2---2------|--2---2-----2---||
|----------------|-----------------|---------------o||
|----------------|-----------------|----------------||


   "We are the industry.."
    2.
    N.C.
    Gtr IV
     H.          Q     +H       H         +Q    H.
||--------------17--|-(17)-------------|-------15---------|
||o-12--------------|----------12------|-(12)-------------|
||------------------|------------------|------------------|
||------------------|------------------|------------------|
||o-----------------|------------------|------------------|
||------------------|------------------|------------------|
|
|   Gtr V
|    Q   E E Q   Q      Q   Q   Q  E E     Q    Q   Q  Q
||---0---7p0-3---2--|---8---5---0--7p0-|---3----2---8--5--|
||o-----------------|------------------|------------------|
||------------------|------------------|------------------|
||------------------|------------------|------------------|
||o-----------------|------------------|------------------|
||------------------|------------------|------------------|


   H.          Q     +H       H         +Q    H.
|-------------14--|-(14)-------------|-------10----------||
|-12--------------|----------12------|-(12)-------------o||
|-----------------|------------------|-------------------||
|-----------------|------------------|-------------------||
|-----------------|------------------|------------------o||
|-----------------|------------------|-------------------||
|
|  Q   E E Q   Q      Q   Q   Q  E E     Q    Q   Q  Q
|--0---7p0-3---2--|---8---5---0--7p0-|---3----2---8--5---||
|-----------------|------------------|------------------o||
|-----------------|------------------|-------------------||
|-----------------|------------------|-------------------||
|-----------------|------------------|------------------o||
|-----------------|------------------|-------------------||


    N.C.
     H.         Q     +H       H        +Q    H.
||-------------17--|-(17)------------|-------15---------|
||o-12-------------|----------12-----|-(12)-------------|
||-----------------|-----------------|------------------|
||-----------------|-----------------|------------------|
||o----------------|-----------------|------------------|
||-----------------|-----------------|------------------|
|
|    Q   Q  Q   Q      Q   Q   Q  Q      Q    Q   Q  Q
||---7------8---7--|-------8---7-----|---8----7------8--|
||o------5---------|---5----------5--|------------5-----|
||-----------------|-----------------|------------------|
||-----------------|-----------------|------------------|
||o----------------|-----------------|------------------|
||-----------------|-----------------|------------------|


   H.         Q     +H       H        +Q    H.
|------------14--|-(14)------------|-------10---------|
|-12-------------|----------12-----|-(12)-------------|
|----------------|-----------------|------------------|
|----------------|-----------------|------------------|
|----------------|-----------------|------------------|
|----------------|-----------------|------------------|
|
|  Q   Q  Q   Q      Q   Q   Q  Q      Q    Q   Q  Q
|--7------8---7--|-------8---7-----|---8----7------8--|
|------5---------|---5----------5--|------------5-----|
|----------------|-----------------|------------------|
|----------------|-----------------|------------------|
|----------------|-----------------|------------------|
|----------------|-----------------|------------------|


  1.
  N.C.
   H.         Q     +H       H        +Q    H.
|------------17--|-(17)------------|-------15---------|
|-12-------------|----------12-----|-(12)-------------|
|----------------|-----------------|------------------|
|----------------|-----------------|------------------|
|----------------|-----------------|------------------|
|----------------|-----------------|------------------|
|
|  Q   Q  Q   Q      Q   Q   Q  Q      Q    Q   Q  Q
|--7------8---7--|-----------7-----|---8----7---------|
|------5---------|---5---5------5--|------------5--5--|
|----------------|-----------------|------------------|
|----------------|-----------------|------------------|
|----------------|-----------------|------------------|
|----------------|-----------------|------------------|
|
| Gtr I
|  W                 W                 W
|----------------|-----------------|------------------|
|----------------|-----------------|------------------|
|----------------|-----------------|------------------|
|----------------|-----------------|------------------|
|----------------|-----------------|------------------|
|----------------|-----------------|------------------|


   H.         Q     +H       H        +Q    H.
|------------14--|-(14)------------|-------10----------||
|-12-------------|----------12-----|-(12)-------------o||
|----------------|-----------------|-------------------||
|----------------|-----------------|-------------------||
|----------------|-----------------|------------------o||
|----------------|-----------------|-------------------||
|
|  Q   Q  Q   Q      Q   Q   Q  Q      Q    Q   Q  Q
|--7------8---7--|-----------7-----|---8----7----------||
|------5---------|---5---5------5--|------------5--5--o||
|----------------|-----------------|-------------------||
|----------------|-----------------|-------------------||
|----------------|-----------------|------------------o||
|----------------|-----------------|-------------------||
|
|  W                 W                 W
|----------------|-----------------|-------------------||
|----------------|-----------------|------------------o||
|----------------|-----------------|-------------------||
|----------------|-----------------|-------------------||
|----------------|-----------------|------------------o||
|----------------|-----------------|-------------------||


 "The birth and the death.."
  2.
  E5
   H.         Q     +H       H        +Q    H.
|------------17--|-(17)------------|-------15---------|
|-12-------------|----------12-----|-(12)-------------|
|----------------|-----------------|------------------|
|----------------|-----------------|------------------|
|----------------|-----------------|------------------|
|----------------|-----------------|------------------|
|
|  Q   Q  Q   Q      Q   Q   Q  Q      Q    Q   Q  Q
|--7------8---7--|-----------7-----|---8----7---------|
|------5---------|---5---5------5--|------------5--5--|
|----------------|-----------------|------------------|
|----------------|-----------------|------------------|
|----------------|-----------------|------------------|
|----------------|-----------------|------------------|
|
|  W                +H       H        +W
|----------------|-----------------|------------------|
|----------------|-----------------|------------------|
|----------------|-----------------|------------------|
|----------------|-----------------|------------------|
|--2-------------|--(2)------2-----|--(2)-------------|
|--0-------------|--(0)------0-----|--(0)-------------|


  E5
   H.         Q     +H       H        +Q    H.
|------------14--|-(14)------------|-------10---------|
|-12-------------|----------12-----|-(12)-------------|
|----------------|-----------------|------------------|
|----------------|-----------------|------------------|
|----------------|-----------------|------------------|
|----------------|-----------------|------------------|
|
|  Q   Q  Q   Q      Q   Q   Q  Q      Q    Q   Q  Q
|--7------8---7--|-----------7-----|---8----7---------|
|------5---------|---5---5------5--|------------5--5--|
|----------------|-----------------|------------------|
|----------------|-----------------|------------------|
|----------------|-----------------|------------------|
|----------------|-----------------|------------------|
|
|  W                +H       H        +W
|----------------|-----------------|------------------|
|----------------|-----------------|------------------|
|----------------|-----------------|------------------|
|----------------|-----------------|------------------|
|--2-------------|--(2)------2-----|--(2)-------------|
|--0-------------|--(0)------0-----|--(0)-------------|


  A5
   H.         Q     +H       H        +Q    H.
|------------17--|-(17)------------|-------15---------|
|-12-------------|----------12-----|-(12)-------------|
|----------------|-----------------|------------------|
|----------------|-----------------|------------------|
|----------------|-----------------|------------------|
|----------------|-----------------|------------------|
|
|  Q   Q  Q   Q      Q   Q   Q  Q      Q    Q   Q  Q
|--7------8---7--|-------8---7-----|---8----7------8--|
|------5---------|---5----------5--|------------5-----|
|----------------|-----------------|------------------|
|----------------|-----------------|------------------|
|----------------|-----------------|------------------|
|----------------|-----------------|------------------|
|
|  W                +W                +W
|----------------|-----------------|------------------|
|----------------|-----------------|------------------|
|----------------|-----------------|------------------|
|--2-------------|--(2)------------|--(2)-------------|
|--0-------------|--(0)------------|--(0)-------------|
|----------------|-----------------|------------------|


  B5
   H.         Q     +H       H        +Q    H.
|------------14--|-(14)------------|-------10---------|
|-12-------------|----------12-----|-(12)-------------|
|----------------|-----------------|------------------|
|----------------|-----------------|------------------|
|----------------|-----------------|------------------|
|----------------|-----------------|------------------|
|
|  Q   Q  Q   Q      Q   Q   Q  Q      Q    Q   Q  Q
|--7------8---7--|-------8---7-----|---8----7------8--|
|------5---------|---5----------5--|------------5-----|
|----------------|-----------------|------------------|
|----------------|-----------------|------------------|
|----------------|-----------------|------------------|
|----------------|-----------------|------------------|
|
|  W                +W                +W
|----------------|-----------------|------------------|
|----------------|-----------------|------------------|
|----------------|-----------------|------------------|
|--4-------------|--(4)------------|--(4)-------------|
|--2-------------|--(2)------------|--(2)-------------|
|----------------|-----------------|------------------|


  N.C.
   H.                 Q       +H            H
|--------------------17----|-(17)----------------------|
|-12-----------------------|---------------12----------|
|--------------------------|---------------------------|
|--------------------------|---------------------------|
|--------------------------|---------------------------|
|--------------------------|---------------------------|
|
|  Q      Q     Q     Q        Q      Q     Q     Q
|--7------------8-----7----|----------------7----------|
|---------5----------------|---5------5-----------5----|
|--------------------------|---------------------------|
|--------------------------|---------------------------|
|--------------------------|---------------------------|
|--------------------------|---------------------------|
|
|  E   E  E  E  E  E  E  E     E   E  E  E  E  E  E  E
|--------------------------|---------------------------|
|--------------------------|---------------------------|
|-16--16-16-16-16-16-16-16-|--16--16-16-16-16-16-16-16-|
|--------------------------|---------------------------|
|-14--14-14-14-14-14-14-14-|--14--14-14-14-14-14-14-14-|
|--------------------------|---------------------------|


   +Q      H.
|---------15-----------------|
|-(12)-----------------------|
|----------------------------|
|----------------------------|
|----------------------------|
|----------------------------|
|
|   Q      Q      Q     Q
|---8------7-----------------|
|-----------------5-----5----|
|----------------------------|
|----------------------------|
|----------------------------|
|----------------------------|
|
|   E   E  E   E  E  E  E  E
|----------------------------|
|----------------------------|
|--16--16-16--16-16-16-16-16-|
|----------------------------|
|--14--14-14--14-14-14-14-14-|
|----------------------------|


  N.C.
   H.                 Q       +H            H
|--------------------14----|-(14)----------------------|
|-12-----------------------|---------------12----------|
|--------------------------|---------------------------|
|--------------------------|---------------------------|
|--------------------------|---------------------------|
|--------------------------|---------------------------|
|
|  Q      Q     Q     Q        Q      Q     Q     Q
|--7------------8-----7----|----------------7----------|
|---------5----------------|---5------5-----------5----|
|--------------------------|---------------------------|
|--------------------------|---------------------------|
|--------------------------|---------------------------|
|--------------------------|---------------------------|
|
|  E   E  E  E  E  E  E  E     E   E  E  E  E  E  E  E
|--------------------------|---------------------------|
|--------------------------|---------------------------|
|-16--16-16-16-16-16-16-16-|--16--16-16-16-16-16-16-16-|
|--------------------------|---------------------------|
|-14--14-14-14-14-14-14-14-|--14--14-14-14-14-14-14-14-|
|--------------------------|---------------------------|


   +Q      H.
|---------10-----------------|
|-(12)-----------------------|
|----------------------------|
|----------------------------|
|----------------------------|
|----------------------------|
|
|   Q      Q      Q     Q
|---8------7-----------------|
|-----------------5-----5----|
|----------------------------|
|----------------------------|
|----------------------------|
|----------------------------|
|
|   E   E  E   E  E  E  E  E
|----------------------------|
|----------------------------|
|--16--16-16--16-16-16-16-16-|
|----------------------------|
|--14--14-14--14-14-14-14-14-|
|----------------------------|


  N.C.
   H.                 Q       +H            H
|--------------------17----|-(17)----------------------|
|-12-----------------------|---------------12----------|
|--------------------------|---------------------------|
|--------------------------|---------------------------|
|--------------------------|---------------------------|
|--------------------------|---------------------------|
|
|  Q      Q     Q     Q        Q      Q     Q     Q
|--7------------8-----7----|----------8-----7----------|
|---------5----------------|---5------------------5----|
|--------------------------|---------------------------|
|--------------------------|---------------------------|
|--------------------------|---------------------------|
|--------------------------|---------------------------|
|
|  E   E  E  E  E  E  E  E     E   E  E  E  E  E  E  E
|--------------------------|---------------------------|
|--------------------------|---------------------------|
|-16--16-16-16-16-16-16-16-|--16--16-16-16-16-16-16-16-|
|--------------------------|---------------------------|
|-14--14-14-14-14-14-14-14-|--14--14-14-14-14-14-14-14-|
|--------------------------|---------------------------|


   +Q      H.
|---------15-----------------|
|-(12)-----------------------|
|----------------------------|
|----------------------------|
|----------------------------|
|----------------------------|
|
|   Q      Q      Q     Q
|---8------7------------8----|
|-----------------5----------|
|----------------------------|
|----------------------------|
|----------------------------|
|----------------------------|
|
|   E   E  E   E  E  E  E  E
|----------------------------|
|----------------------------|
|--16--16-16--16-16-16-16-16-|
|----------------------------|
|--14--14-14--14-14-14-14-14-|
|----------------------------|


  N.C.
   H.                 Q       +H            H
|--------------------14----|-(14)----------------------|
|-12-----------------------|---------------12----------|
|--------------------------|---------------------------|
|--------------------------|---------------------------|
|--------------------------|---------------------------|
|--------------------------|---------------------------|
|
|  Q      Q     Q     Q        Q      Q     Q     Q
|--7------------8-----7----|----------8-----7----------|
|---------5----------------|---5------------------5----|
|--------------------------|---------------------------|
|--------------------------|---------------------------|
|--------------------------|---------------------------|
|--------------------------|---------------------------|
|
|  E   E  E  E  E  E  E  E     E   E  E  E  E  E  E  E
|--------------------------|---------------------------|
|--------------------------|---------------------------|
|-16--16-16-16-16-16-16-16-|--16--16-16-16-16-16-16-16-|
|--------------------------|---------------------------|
|-14--14-14-14-14-14-14-14-|--14--14-14-14-14-14-14-14-|
|--------------------------|---------------------------|


   +Q      H.
|---------10-----------------|
|-(12)-----------------------|
|----------------------------|
|----------------------------|
|----------------------------|
|----------------------------|
|
|   Q      Q      Q     Q
|---8------7------------8----|
|-----------------5----------|
|----------------------------|
|----------------------------|
|----------------------------|
|----------------------------|
|
|   E   E  E   E  E  E  E  E
|----------------------------|
|----------------------------|
|--16--16-16--16-16-16-16-16-|
|----------------------------|
|--14--14-14--14-14-14-14-14-|
|----------------------------|


  N.C.
   H.                 Q       +H            H
|--------------------17----|-(17)----------------------|
|-12-----------------------|---------------12----------|
|--------------------------|---------------------------|
|--------------------------|---------------------------|
|--------------------------|---------------------------|
|--------------------------|---------------------------|
|
|  Q      Q     Q     Q        Q      Q     Q     Q
|--7------------8-----7----|----------------7----------|
|---------5----------------|---5------5-----------5----|
|--------------------------|---------------------------|
|--------------------------|---------------------------|
|--------------------------|---------------------------|
|--------------------------|---------------------------|
|
|  E   E  E  E  E  E  E  E     E   E  E  E  E  E  E  E
|--------------------------|---------------------------|
|--------------------------|---------------------------|
|-16--16-16-16-16-16-16-16-|--16--16-16-16-16-16-16-16-|
|--------------------------|---------------------------|
|-14--14-14-14-14-14-14-14-|--14--14-14-14-14-14-14-14-|
|--------------------------|---------------------------|


   +Q      H.
|---------15-----------------|
|-(12)-----------------------|
|----------------------------|
|----------------------------|
|----------------------------|
|----------------------------|
|
|   Q      Q      Q     Q
|---8------7-----------------|
|-----------------5-----5----|
|----------------------------|
|----------------------------|
|----------------------------|
|----------------------------|
|
|   E   E  E   E  E  E  E  E
|----------------------------|
|----------------------------|
|--16--16-16--16-16-16-16-16-|
|----------------------------|
|--14--14-14--14-14-14-14-14-|
|----------------------------|


  N.C.
   H.                 Q       +H            H
|--------------------14----|-(14)----------------------|
|-12-----------------------|---------------12----------|
|--------------------------|---------------------------|
|--------------------------|---------------------------|
|--------------------------|---------------------------|
|--------------------------|---------------------------|
|
|  Q      Q     Q     Q        Q      Q     Q     Q
|--7------------8-----7----|----------------7----------|
|---------5----------------|---5------5-----------5----|
|--------------------------|---------------------------|
|--------------------------|---------------------------|
|--------------------------|---------------------------|
|--------------------------|---------------------------|
|
|  E   E  E  E  E  E  E  E     E   E  E  E  E  E  E  E
|--------------------------|---------------------------|
|--------------------------|---------------------------|
|-16--16-16-16-16-16-16-16-|--16--16-16-16-16-16-16-16-|
|--------------------------|---------------------------|
|-14--14-14-14-14-14-14-14-|--14--14-14-14-14-14-14-14-|
|--------------------------|---------------------------|


   +Q      H.
|---------10-----------------|
|-(12)-----------------------|
|----------------------------|
|----------------------------|
|----------------------------|
|----------------------------|
|
|   Q      Q      Q     Q
|---8------7-----------------|
|-----------------5-----5----|
|----------------------------|
|----------------------------|
|----------------------------|
|----------------------------|
|
|   E   E  E   E  E  E  E  E
|----------------------------|
|----------------------------|
|--16--16-16--16-16-16-16-16-|
|----------------------------|
|--14--14-14--14-14-14-14-14-|
|----------------------------|


  N.C.
   H.                 Q       +H            H
|--------------------17----|-(17)----------------------|
|-12-----------------------|---------------12----------|
|--------------------------|---------------------------|
|--------------------------|---------------------------|
|--------------------------|---------------------------|
|--------------------------|---------------------------|
|
|  Q      Q     Q     Q        Q      Q     Q     Q
|--7------------8-----7----|----------8-----7----------|
|---------5----------------|---5------------------5----|
|--------------------------|---------------------------|
|--------------------------|---------------------------|
|--------------------------|---------------------------|
|--------------------------|---------------------------|
|
|  E   E  E  E  E  E  E  E     E   E  E  E  E  E  E  E
|--------------------------|---------------------------|
|--------------------------|---------------------------|
|-16--16-16-16-16-16-16-16-|--16--16-16-16-16-16-16-16-|
|--------------------------|---------------------------|
|-14--14-14-14-14-14-14-14-|--14--14-14-14-14-14-14-14-|
|--------------------------|---------------------------|


   +Q      H.
|---------15-----------------|
|-(12)-----------------------|
|----------------------------|
|----------------------------|
|----------------------------|
|----------------------------|
|
|   Q      Q      Q     Q
|---8------7------------8----|
|-----------------5----------|
|----------------------------|
|----------------------------|
|----------------------------|
|----------------------------|
|
|   E   E  E   E  E  E  E  E
|----------------------------|
|----------------------------|
|--16--16-16--16-16-16-16-16-|
|----------------------------|
|--14--14-14--14-14-14-14-14-|
|----------------------------|


  N.C.
   H.                 Q       +H            H
|--------------------14----|-(14)----------------------|
|-12-----------------------|---------------12----------|
|--------------------------|---------------------------|
|--------------------------|---------------------------|
|--------------------------|---------------------------|
|--------------------------|---------------------------|
|
|  Q      Q     Q     Q        Q      Q     Q     Q
|--7------------8-----7----|----------8-----7----------|
|---------5----------------|---5------------------5----|
|--------------------------|---------------------------|
|--------------------------|---------------------------|
|--------------------------|---------------------------|
|--------------------------|---------------------------|
|
|  E   E  E  E  E  E  E  E     E   E  E  E  E  E  E  E
|--------------------------|---------------------------|
|--------------------------|---------------------------|
|-16--16-16-16-16-16-16-16-|--16--16-16-16-16-16-16-16-|
|--------------------------|---------------------------|
|-14--14-14-14-14-14-14-14-|--14--14-14-14-14-14-14-14-|
|--------------------------|---------------------------|


   +Q      H.
|---------10-----------------|
|-(12)-----------------------|
|----------------------------|
|----------------------------|
|----------------------------|
|----------------------------|
|
|   Q      Q      Q     Q
|---8------7------------8----|
|-----------------5----------|
|----------------------------|
|----------------------------|
|----------------------------|
|----------------------------|
|
|   E   E  E   E  E  E  E  E
|----------------------------|
|----------------------------|
|--16--16-16--16-16-16-16-16-|
|----------------------------|
|--14--14-14--14-14-14-14-14-|
|----------------------------|


 Outro
  N.C.
  Gtr IV
   H.                 Q       +H            H
|--------------------17----|-(17)----------------------|
|-12-----------------------|---------------12----------|
|--------------------------|---------------------------|
|--------------------------|---------------------------|
|--------------------------|---------------------------|
|--------------------------|---------------------------|
|
| Gtr VI
|  W                          +W
|--------------------------|---------------------------|
|--------------------------|---------------------------|
|--4-----------------------|--(4)----------------------|
|--------------------------|---------------------------|
|--2-----------------------|--(2)----------------------|
|--------------------------|---------------------------|
|
| Gtrs I, II
|  E   E  E  E  E  E  E  E     E   E  E  E  E  E  E  E
|--------------------------|---------------------------|
|--------------------------|---------------------------|
|-16--16-16-16-16-16-16-16-|--17--17-17-17-16-16-16-16-|
|--------------------------|---------------------------|
|-14--14-14-14-14-14-14-14-|--15--15-15-15-14-14-14-14-|
|--------------------------|---------------------------|


   +Q      H.
|---------15-----------------|
|-(12)-----------------------|
|----------------------------|
|----------------------------|
|----------------------------|
|----------------------------|
|
|  +W
|----------------------------|
|----------------------------|
|--(4)-----------------------|
|----------------------------|
|--(2)-----------------------|
|----------------------------|
|
|   E   E  E   E  E  E  E  E
|----------------------------|
|----------------------------|
|--16--16-16--16-17-17-17-17-|
|----------------------------|
|--14--14-14--14-15-15-15-15-|
|----------------------------|


  N.C.
   H.                 Q       +H            H
|--------------------14----|-(14)----------------------|
|-12-----------------------|---------------12----------|
|--------------------------|---------------------------|
|--------------------------|---------------------------|
|--------------------------|---------------------------|
|--------------------------|---------------------------|
|
| +W                          +W
|--------------------------|---------------------------|
|--------------------------|---------------------------|
|-(4)----------------------|--(4)----------------------|
|--------------------------|---------------------------|
|-(2)----------------------|--(2)----------------------|
|--------------------------|---------------------------|
|
|  E   E  E  E  E  E  E  E     E   E  E  E  E  E  E  E
|--------------------------|---------------------------|
|--------------------------|---------------------------|
|-16--16-16-16-16-16-16-16-|--17--17-17-17-16-16-16-16-|
|--------------------------|---------------------------|
|-14--14-14-14-14-14-14-14-|--15--15-15-15-14-14-14-14-|
|--------------------------|---------------------------|


   +Q      H.
|---------10-----------------|
|-(12)-----------------------|
|----------------------------|
|----------------------------|
|----------------------------|
|----------------------------|
|
|  +W
|----------------------------|
|----------------------------|
|--(4)-----------------------|
|----------------------------|
|--(2)-----------------------|
|----------------------------|
|
|   E   E  E   E  E  E  E  E
|----------------------------|
|----------------------------|
|--16--16-16--16-17-17-17-17-|
|----------------------------|
|--14--14-14--14-15-15-15-15-|
|----------------------------|


  N.C.
   H.                 Q       +H            H
|--------------------17----|-(17)----------------------|
|-12-----------------------|---------------12----------|
|--------------------------|---------------------------|
|--------------------------|---------------------------|
|--------------------------|---------------------------|
|--------------------------|---------------------------|
|
| +W                          +W
|--------------------------|---------------------------|
|--------------------------|---------------------------|
|-(4)----------------------|--(4)----------------------|
|--------------------------|---------------------------|
|-(2)----------------------|--(2)----------------------|
|--------------------------|---------------------------|
|
|  E   E  E  E  E  E  E  E     E   E  E  E  E  E  E  E
|--------------------------|---------------------------|
|--------------------------|---------------------------|
|-16--16-16-16-16-16-16-16-|--17--17-17-17-16-16-16-16-|
|--------------------------|---------------------------|
|-14--14-14-14-14-14-14-14-|--15--15-15-15-14-14-14-14-|
|--------------------------|---------------------------|


   +Q      H.
|---------15-----------------|
|-(12)-----------------------|
|----------------------------|
|----------------------------|
|----------------------------|
|----------------------------|
|
|  +W
|----------------------------|
|----------------------------|
|--(4)-----------------------|
|----------------------------|
|--(2)-----------------------|
|----------------------------|
|
|   E   E  E   E  E  E  E  E
|----------------------------|
|----------------------------|
|--16--16-16--16-17-17-17-17-|
|----------------------------|
|--14--14-14--14-15-15-15-15-|
|----------------------------|


  N.C.
   H.                 Q       +H            H
|--------------------14----|-(14)----------------------|
|-12-----------------------|---------------12----------|
|--------------------------|---------------------------|
|--------------------------|---------------------------|
|--------------------------|---------------------------|
|--------------------------|---------------------------|
|
| +W                          +W
|--------------------------|---------------------------|
|--------------------------|---------------------------|
|-(4)----------------------|--(4)----------------------|
|--------------------------|---------------------------|
|-(2)----------------------|--(2)----------------------|
|--------------------------|---------------------------|
|
|  E   E  E  E  E  E  E  E     E   E  E  E  E  E  E  E
|--------------------------|---------------------------|
|--------------------------|---------------------------|
|-16--16-16-16-16-16-16-16-|--17--17-17-17-16-16-16-16-|
|--------------------------|---------------------------|
|-14--14-14-14-14-14-14-14-|--15--15-15-15-14-14-14-14-|
|--------------------------|---------------------------|


   +Q      H.
|---------10-----------------|
|-(12)-----------------------|
|----------------------------|
|----------------------------|
|----------------------------|
|----------------------------|
|
|  +W
|----------------------------|
|----------------------------|
|--(4)-----------------------|
|----------------------------|
|--(2)-----------------------|
|----------------------------|
|
|   E   E  E   E  E  E  E  E
|----------------------------|
|----------------------------|
|--16--16-16--16-17-17-17-17-|
|----------------------------|
|--14--14-14--14-15-15-15-15-|
|----------------------------|


  N.C.
   H.                 Q       +H            H
|--------------------17----|-(17)----------------------|
|-12-----------------------|---------------12----------|
|--------------------------|---------------------------|
|--------------------------|---------------------------|
|--------------------------|---------------------------|
|--------------------------|---------------------------|
|
| +W                          +W
|--------------------------|---------------------------|
|--------------------------|---------------------------|
|-(4)----------------------|--(4)----------------------|
|--------------------------|--------------------------





Comments


Popular Bled tabs & chords
Get Up You Son Of A Bitch, Cause Mickey Loves Ya Bass Tabs
Ruth Buzzi Better Watch Her Back Bass Tabs
You Know Who's Seatbelt Bass Tabs
Anvil Pinata Tabs
Hotel Coral Essex Tabs
I Never Met Another Gemini 2 Tabs
Porcelain Hearts And Hammers For Teeth Tabs
Porcelain Hearts And Hammers For Teeth 1 Tabs
Red Wedding Tabs
Sound Of Sulfur 1 Tabs


Song lyrics



↑ Back to top | Tablatures and chords are parodies/interpretations of the original songs. You may use it for private study, scholarship, research or language learning purposes only
© 2014 AZChords.com Contact us | Privacy policy | DMCA | Add/correct tabs | Request tabs | Top 50 tabs