» » »

Bled, Spitshine Sonata Bass tabs (ver.1)

Artists:  A B C D E F G H I J K L M N O P Q R S T U V W X Y Z # 

Spitshine Sonata Bass tabs (ver.1)

Bled Tabs
 Rating:
4/5 (4 votes)
Spitshine Sonata lessons Tabs too difficult? Try these video lessons and learn fast
1
                
SPITSHINE SONATA (Bassline)
As recorded by The Bled
(From the 2003 Album PASS THE FLASK)

	

Words and Music by The Bled
Arranged by The Bled

Gtr I (D G C F) - 'Bass'

 Intro
  Q=167
  N.C.   E
 2/4    4/4
  Gtr I
  H      H    H      H    H      E E E E E E E E
|------|-----------|-----------|-----------------|
|------|-----------|-----------|-----------------|
|------|-----------|-----------|-----------------|
|------|-0----0----|-0----0----|-0-0-0-0-0-0-0-0-|


  E
                          2/4
  S S S S S S S S E Q.     H
|------------------------|------|
|------------------------|------|
|------------------------|------|
|-0-0-0-0-0-0-0-0-0------|------|


   Chorus
    E
   4/4
    E E E E E E E E   Q  H.        E E E E E E E E   E E E E E E E E
||------------------|------------|-----------------|------------------|
||o-----------------|------------|-----------------|------------------|
||o-7-7-7-7---7-7-7-|-7----------|-7-7-7-7---7-7-7-|-7-7-7-7-7-7-7-7--|
||------------------|------------|-----------------|------------------|


  C
  E E E E E E E E   E E E E E E E E   E E E E E E E E   E E E E E E E E  3x
|-----------------|-----------------|-----------------|------------------||
|-----------------|-----------------|-----------------|-----------------o||
|-----------------|-----------------|-----------------|-----------------o||
|-8-8-8-8-8-8-8-8-|-8-8-8-8-8-8-8-8-|-8-8-8-8-8-8-8-8-|-8-8-8-8-8-8-8-8--||


  A                               B
  E E Q  E E Q    E E Q  E E Q    E E Q  E E Q    E E Q  E E Q
|---------------|---------------|---------------|---------------|
|---------------|---------------|---------------|---------------|
|---------------|---------------|---------------|---------------|
|-5-5-5--5-5-5--|-5-5-5--5-5-5--|-7-7-7--7-7-7--|-7-7-7--7-7-7--|


   Verse
    E
    E. E. Q  S S S S S S   E. E. E E E E E
||-----------------------|-----------------|
||o----------------------|-----------------|
||o----------------------|-----------------|
||--0--0-----0-0-0-0-0-0-|-0--0----0-0-0---|


  C                              D
  E. E. Q  S S S S S S   E. E. E E E E E  4x
|----------------------|------------------||
|----------------------|-----------------o||
|-3--3-----3-3-3-3-3-3-|-3--3----5-5-5---o||
|----------------------|------------------||


    E
    E. E. E E E E E   E. E. E E E E E
||------------------|-----------------|
||o-----------------|-----------------|
||o-----------------|-----------------|
||--0--0----0-0-0---|-0--0----0-0-0---|


  C
  E. E. H    E   E. E. H    E  4x
|--------------|---------------||
|--------------|--------------o||
|-3--3---------|-3--3---------o||
|--------------|---------------||


 Bridge
  C
  W          +W           W          W
|----------|------------|----------|------|
|----------|------------|----------|------|
|-3--------|-(3)--------|----------|------|
|----------|------------|----------|------|


  E
  W          +W             +W           +W      3x
|----------|------------||-------------|---------||
|----------|------------||o------------|--------o||
|----------|------------||o------------|--------o||
|-0--------|-(0)--------||--(0)--------|-(0)-----||


 Interlude
  E
  W          +W           +W           +W
|----------|------------|------------|--------|
|----------|------------|------------|--------|
|----------|------------|------------|--------|
|-0--------|-(0)--------|-(0)--------|-(0)----|


    E                       D
    W          +W            W           +W
||-----------|------------|-----------|----------||
||o----------|------------|-----------|---------o||
||o----------|------------|-----------|---------o||
||--0--------|-(0)--------|-10--------|-(10)-----||


  A                                   B                 C
  E E E E E E E E   E E E E E E E E   E E E E E E E E   E E E E E E Q
|-----------------|-----------------|-----------------|-----------------|
|-----------------|-----------------|-----------------|-----------------|
|-----------------|-----------------|-----------------|-----------------|
|-5-5-5-5-5-5-5-5-|-5-5-5-5-5-5-5-5-|-7-7-7-7-7-7-7-7-|-8-8-8-8-8-8-8\--|


   Chorus
    E
    E E E E E E E E   Q   S S E S S E S S E
||------------------|-----------------------|
||o-----------------|-----------------------|
||o-7-7-7-7---7-7-7-|-7\--------------------|
||------------------|-----0-0-0-0-0-0-0-0-0-|


  E E E E E E E E   Q   S S E S S E S S E
|-----------------|-------------------------|
|-----------------|-------------------------|
|-7-7-7-7---7-7-7-|-7\----------------------|
|-----------------|-----0-0-0-0-0-0-0-0-0---|


  C
  E E E E E E E E   E E E E E E E E   E E E E E E E E   E E E E E E E E  3x
|-----------------|-----------------|-----------------|------------------||
|-----------------|-----------------|-----------------|-----------------o||
|-----------------|-----------------|-----------------|-----------------o||
|-8-8-8-8-8-8-8-8-|-8-8-8-8-8-8-8-8-|-8-8-8-8-8-8-8-8-|-8-8-8-8-8-8-8-8--||


  A                                   B
  E E E E E E E E   E E E E E E E E   E E E E E E E E   E E E E E E E E
|-----------------|-----------------|-----------------|-----------------|
|-----------------|-----------------|-----------------|-----------------|
|-----------------|-----------------|-----------------|-----------------|
|-5-5-5-5-5-5-5-5-|-5-5-5-5-5-5-5-5-|-7-7-7-7-7-7-7-7-|-7-7-7-7-7-7-7-7-|


  C
  E E E E E E E E   E E E E E E E E
|-----------------|-----------------|
|-----------------|-----------------|
|-----------------|-----------------|
|-8-8-8-8-8-8-8-8-|-8-8-8-8-8-8-8-8-|


  D
   E  E  E  E  E  E  E  E    E  E  E  E  E  E  E  E
|-------------------------|-------------------------|
|-------------------------|-------------------------|
|-------------------------|-------------------------|
|-10-10-10-10-10-10-10-10-|-10-10-10-10-10-10-10-10-|


   Breakdown
                 1.,2.,3.         4.
    E
    Q  Q  H      E. E. E H     4x W
||-------------|---------------||------|
||o------------|--------------o||------|
||o------------|--------------o||------|
||--0--0-------|-0--0--0-------||------|


    E
    Q  Q  H      E. E. E H     4x
||-------------|---------------||
||o------------|--------------o||
||o------------|--------------o||
||--0--0-------|-0--0--0-------||


 Outro
  E
  H    H      H    H      E E E E E E E E
|-----------|-----------|-----------------|
|-----------|-----------|-----------------|
|-----------|-----------|-----------------|
|-0----0----|-0----0----|-0-0-0-0-0-0-0-0-|


  E
  S S S S S S S S E Q.     Wx2
|------------------------|--------*|
|------------------------|--------*|
|------------------------|--------*|
|-0-0-0-0-0-0-0-0-0------|--------*|



Duration Legend
---------------
W - whole; H - half; Q - quarter; E - 8th; S - 16th; T - 32nd; X - 64th; a - acciaccatura
+ - note tied to previous; . - note dotted; .. - note double dotted
Uncapitalized letters represent notes that are staccato (1/2 duration)
Irregular groupings are notated above the duration line
Duration letters will always appear directly above the note/fret number it represents the
duration for.  Duration letters with no fret number below them represent rests.  Multi-
bar rests are notated in the form Wxn, where n is the number of bars to rest for.  Low
melody durations appear below the staff

Tablature Legend
----------------
 h   - hammer-on
 p   - pull-off
 b   - bend
 pb  - pre-bend
 r   - bend release (if no number after the r, then release immediately)
 /\  - slide into or out of (from/to "nowhere")
 s   - legato slide
 S   - shift slide
 - natural harmonic
[n]  - artificial harmonic
n(n) - tapped harmonic
 ~   - vibrato
 tr  - trill
 T   - tap
 TP  - trem. picking
 PM  - palm muting
\n/  - tremolo bar dip; n = amount to dip
 \n  - tremolo bar down
 n/  - tremolo bar up
/n\  - tremolo bar inverted dip
 =   - hold bend; also acts as connecting device for hammers/pulls
 <> - volume swell (louder/softer)
 x   - on rhythm slash represents muted slash
 o   - on rhythm slash represents single note slash

Misc Legend
-----------
 |  - bar
||  - double bar
||o - repeat start
o|| - repeat end
*|  - double bar (ending)
 :  - bar (freetime)
 $  - Segno
 &  - Coda
Tempo markers -  = BPM(8/16=s8/s16), where s8 = swing 8ths, s16 = swing 16ths
            
Submit corrections

comments powered by Disqus
↑ Back to top | Bled Bass for Spitshine Sonata. Lyrics for acoustic guitar and electric guitar. 1 Tablatures and chords are parodies/interpretations of the original songs. You may use it for private study, scholarship, research or language learning purposes only