>
 >
Spitshine Sonata

Spitshine Sonata Guitar Tabs

Bled - Spitshine Sonata chords, tabs, tablatures, lyrics

Guitar lessons | Add/correct | Request | Top 50 tabs Artists:  A B C D E F G H I J K L M N O P Q R S T U V W X Y Z 0-9

Spitshine Sonata Guitar Tabs – Bled

CD, Sheet music, Poster

Do you like Spitshine Sonata? Share with your friends now
Bass TabsTabs
#------------------------------------------------------------------------------##

                                SPITSHINE SONATA
                             As recorded by The Bled
                      (From the 2003 Album PASS THE FLASK)

Words and Music by The Bled
Arranged by The Bled

Gtr I (D G C F A D) - 'Distorted'
Gtr II (D G C F A D) - 'Distorted'
Gtr III (D G C F A D) - 'Distorted'
Gtr IV (D G C F A D) - 'Clean'
Gtr V (D G C F A D) - 'Clean'
Gtr VI (D G C F A D) - 'Clean'

 Intro
  Q=167
  N.C.   E5
 2/4    4/4
  Gtr I
  H       H     H       H     H       E  H.           E
|------|-14----14----|-14----14----|-14-----------------|
|------|-17----17----|-17----17----|-17-----------------|
|------|-------------|-------------|--------------------|
|------|-------------|-------------|--------------------|
|------|-------------|-------------|--------------------|
|------|-------------|-------------|--------------------|
|
| Gtr II
|                                        PM-----------|
| H       H     H       H     H       E  E  E E E E E E
|------|-------------|-------------|--------------------|
|------|-------------|-------------|--------------------|
|------|-------------|-------------|--------------------|
|------|--2-----2----|--2-----2----|--2-(2)-------------|
|------|--2-----2----|--2-----2----|--2--2--2-2-2-2-2-2-|
|------|--0-----0----|--0-----0----|--0--0--0-0-0-0-0-0-|
|
| Gtr III
|                                        PM-----------|
| H       H     H       H     H       E  E  E E E E E E
|------|--------0----|--------0----|--------------------|
|------|--0-----0----|--0-----0----|--------------------|
|------|--9-----9----|--9-----9----|--------------------|
|------|--9-----9----|--9-----9----|--9-(9)-------------|
|------|--7-----7----|--7-----7----|--7--7--7-7-7-7-7-7-|
|------|-------------|-------------|--0--0--0-0-0-0-0-0-|


  E5
                          2/4
  Gtr II
  PM--------------|
  S S S S S S S S E Q.     H
|------------------------|------|
|------------------------|------|
|------------------------|------|
|------------------------|------|
|-2-2-2-2-2-2-2-2-2------|------|
|-0-0-0-0-0-0-0-0-0------|------|
|
| Gtr III
| PM--------------|
| S S S S S S S S E Q.     H
|------------------------|------|
|------------------------|------|
|------------------------|------|
|------------------------|------|
|-7-7-7-7-7-7-7-7-7------|------|
|-0-0-0-0-0-0-0-0-0------|------|


 Chorus
  E5
 4/4
  Gtr I
   E  E  E  E E  E  E  E    Q  H.
|------------------------|-------------|
|------------------------|-------------|
|-11-11-11-11---11-11-11-|-11----------|
|--x--x--x--x----x--x--x-|--x----------|
|--9--9--9--9----9--9--9-|--9----------|
|------------------------|-------------|
|
| Gtr II
|  E  E  E  E E  E  E  E    Q  H.
|------------------------|-------------|
|------------------------|-------------|
|-11-11-11-11---11-11-11-|-11----------|
|--x--x--x--x----x--x--x-|--x----------|
|--9--9--9--9----9--9--9-|--9----------|
|------------------------|-------------|
|
| Gtr III
|  E  E  E  E E  E  E  E    Q  H.
|------------------------|-------------|
|------------------------|-------------|
|------------------------|-------------|
|--9--9--9--9----9--9--9-|--9----------|
|--7--7--7--7----7--7--7-|--7----------|
|--0--0--0--0----0--0--0-|--0----------|


   E  E  E  E E  E  E  E    H        H
|------------------------|-------------------|
|------------------------|-------------------|
|-11-11-11-11---11-11-11-|-17-------16-------|
|--x--x--x--x----x--x--x-|--x--------x-------|
|--9--9--9--9----9--9--9-|-15-------14-------|
|------------------------|-------------------|
|
|  E  E  E  E E  E  E  E    W
|------------------------|-------------------|
|------------------------|-------------------|
|-11-11-11-11---11-11-11-|-11----------------|
|--x--x--x--x----x--x--x-|--x----------------|
|--9--9--9--9----9--9--9-|--9----------------|
|------------------------|-------------------|
|
|  E  E  E  E E  E  E  E    E E E E  E E E E
|------------------------|-------------------|
|------------------------|-------------------|
|------------------------|-------------------|
|--9--9--9--9----9--9--9-|--9-9-9-9--9-9-9-9-|
|--7--7--7--7----7--7--7-|--7-7-7-7--7-7-7-7-|
|--0--0--0--0----0--0--0-|--0-0-0-0--0-0-0-0-|


  C5
  Gtrs I, II
   E  E  E  E  E  E  E  E    E  E  E  E  E  E  E  E
|-------------------------|-------------------------|
|-------------------------|-------------------------|
|-11-11-11-11-11-11-11-12-|-11--9--9--9--9--9--9--9-|
|--x--x--x--x--x--x--x--x-|--x--x--x--x--x--x--x--x-|
|--9--9--9--9--9--9--9-10-|--9--7--7--7--7--7--7--7-|
|-------------------------|-------------------------|
|
| Gtr III
|  E  E  E  E  E  E  E  E    E  E  E  E  E  E  E  E
|-------------------------|-------------------------|
|-------------------------|-------------------------|
|-------------------------|-------------------------|
|-10-10-10-10-10-10-10-10-|-10-10-10-10-10-10-10-10-|
|-10-10-10-10-10-10-10-10-|-10-10-10-10-10-10-10-10-|
|--8--8--8--8--8--8--8--8-|--8--8--8--8--8--8--8--8-|


   E  E  E  E  E  E  E  E    E  E  E  E  E  E  E  E
|-------------------------|-------------------------|
|-------------------------|-------------------------|
|-11-11-11-11-11-11-11-12-|-11--9--9--9--9--9--9--9-|
|--x--x--x--x--x--x--x--x-|--x--x--x--x--x--x--x--x-|
|--9--9--9--9--9--9--9-10-|--9--7--7--7--7--7--7--7-|
|-------------------------|-------------------------|
|
|  E  E  E  E  E  E  E  E    E  E  E  E  E  E  E  E
|-------------------------|-------------------------|
|-------------------------|-------------------------|
|-------------------------|-------------------------|
|-10-10-10-10-10-10-10-10-|-10-10-10-10-10-10-10-10-|
|-10-10-10-10-10-10-10-10-|-10-10-10-10-10-10-10-10-|
|--8--8--8--8--8--8--8--8-|--8--8--8--8--8--8--8--8-|


    E5
   4/4
    Gtr IV
     <  <  <  <    <  <  <    <
     E  E  E  E E  E  E  E    W
||-------------------------|-------------|
||o------------------------|-15----------|
||-----12----12------12----|-------------|
||--14----14------14----14-|-------------|
||o------------------------|-------------|
||-------------------------|-------------|
|
|   Gtr II
|    E  E  E  E E  E  E  E    Q  H.
||-------------------------|-------------|
||o------------------------|-------------|
||--11-11-11-11---11-11-11-|-11----------|
||---x--x--x--x----x--x--x-|--x----------|
||o--9--9--9--9----9--9--9-|--9----------|
||-------------------------|-------------|
|
|   Gtr III
|    E  E  E  E E  E  E  E    Q  H.
||-------------------------|-------------|
||o------------------------|-------------|
||-------------------------|-------------|
||---9--9--9--9----9--9--9-|--9----------|
||o--7--7--7--7----7--7--7-|--7----------|
||---0--0--0--0----0--0--0-|--0----------|


   <  <  <  <    <  <  <    <     <     <  <  <
   E  E  E  E E  E  E  E    Q     Q     E  E  E  +E
|------------------------|----------------------------|
|------------------------|-15----13----12-13-12-(12)--|
|----12----12------12----|----------------------------|
|-14----14------14----14-|----------------------------|
|------------------------|----------------------------|
|------------------------|----------------------------|
|
|  E  E  E  E E  E  E  E    E  E  E  E  E  E  E   E
|------------------------|----------------------------|
|------------------------|----------------------------|
|-11-11-11-11---11-11-11-|-17-17-17-17-16-16-16--16---|
|--x--x--x--x----x--x--x-|--x--x--x--x--x--x--x---x---|
|--9--9--9--9----9--9--9-|-15-15-15-15-14-14-14--14---|
|------------------------|----------------------------|
|
|  E  E  E  E E  E  E  E    E  E  E  E  E  E  E   E
|------------------------|----------------------------|
|------------------------|----------------------------|
|------------------------|----------------------------|
|--9--9--9--9----9--9--9-|--9--9--9--9--9--9--9---9---|
|--7--7--7--7----7--7--7-|--7--7--7--7--7--7--7---7---|
|--0--0--0--0----0--0--0-|--0--0--0--0--0--0--0---0---|


  C5
                                >
   +W                          +W
|---------------------------|---------------------------|
|-(12)----------------------|-(12)----------------------|
|---------------------------|---------------------------|
|---------------------------|---------------------------|
|---------------------------|---------------------------|
|---------------------------|---------------------------|
|
|   E   E  E  E  E  E  E  E     E   E  E  E  E  E  E  E
|---------------------------|---------------------------|
|---------------------------|---------------------------|
|--11--11-11-11-11-11-11-12-|--11---9--9--9--9--9--9--9-|
|---x---x--x--x--x--x--x--x-|---x---x--x--x--x--x--x--x-|
|---9---9--9--9--9--9--9-10-|---9---7--7--7--7--7--7--7-|
|---------------------------|---------------------------|
|
|   E   E  E  E  E  E  E  E     E   E  E  E  E  E  E  E
|---------------------------|---------------------------|
|---------------------------|---------------------------|
|---------------------------|---------------------------|
|--10--10-10-10-10-10-10-10-|--10--10-10-10-10-10-10-10-|
|--10--10-10-10-10-10-10-10-|--10--10-10-10-10-10-10-10-|
|---8---8--8--8--8--8--8--8-|---8---8--8--8--8--8--8--8-|


   +W                          +W
|---------------------------|----------------------------||
|-(12)----------------------|-(12)----------------------o||
|---------------------------|----------------------------||
|---------------------------|----------------------------||
|---------------------------|---------------------------o||
|---------------------------|----------------------------||
|
|   E   E  E  E  E  E  E  E     E   E  E  E  E  E  E  E
|---------------------------|----------------------------||
|---------------------------|---------------------------o||
|--11--11-11-11-11-11-11-12-|--11---9--9--9--9--9--9--9--||
|---x---x--x--x--x--x--x--x-|---x---x--x--x--x--x--x--x--||
|---9---9--9--9--9--9--9-10-|---9---7--7--7--7--7--7--7-o||
|---------------------------|----------------------------||
|
|   E   E  E  E  E  E  E  E     E   E  E  E  E  E  E  E
|---------------------------|----------------------------||
|---------------------------|---------------------------o||
|---------------------------|----------------------------||
|--10--10-10-10-10-10-10-10-|--10--10-10-10-10-10-10-10--||
|--10--10-10-10-10-10-10-10-|--10--10-10-10-10-10-10-10-o||
|---8---8--8--8--8--8--8--8-|---8---8--8--8--8--8--8--8--||


  A5
  Gtrs I, II
   E  E  E  E  E  E  E  E    E E E E E E E E
|-------------------------|------------------|
|-------------------------|------------------|
|-11-11-11-11-11-11-11-11-|-11-9-9-9-9-9-9-9-|
|--x--x--x--x--x--x--x--x-|--x-x-x-x-x-x-x-x-|
|--9--9--9--9--9--9--9--9-|--9-7-7-7-7-7-7-7-|
|-------------------------|------------------|
|
| Gtr III
|  PM|         PM|           PM|     PM|
|  E  E  Q     E  E  Q       E E Q   E E Q
|-------------------------|------------------|
|-------------------------|------------------|
|-------------------------|------------------|
|--------7-----------7----|------7-------7---|
|--7--7--7-----7--7--7----|--7-7-7---7-7-7---|
|--5--5--5-----5--5--5----|--5-5-5---5-5-5---|


  B5
   E  E  E  E  E  E  E  E    E E E E E E E E
|-------------------------|------------------|
|-------------------------|------------------|
|-11-11-11-11-11-11-11-11-|-11-9-9-9-9-9-9-9-|
|--x--x--x--x--x--x--x--x-|--x-x-x-x-x-x-x-x-|
|--9--9--9--9--9--9--9--9-|--9-7-7-7-7-7-7-7-|
|-------------------------|------------------|
|
|  PM|         PM|           PM|     PM|
|  E  E  Q     E  E  Q       E E Q   E E Q
|-------------------------|------------------|
|-------------------------|------------------|
|-------------------------|------------------|
|--------9-----------9----|------9-------9---|
|--9--9--9-----9--9--9----|--9-9-9---9-9-9---|
|--7--7--7-----7--7--7----|--7-7-7---7-7-7---|


   Verse
    E5
    Gtr II
    PM------------------------|    PM--|
    E. E. Q  S S S S S S   E. E. E E E E E
||-----------------------|-----------------|
||o----------------------|-----------------|
||-----------------------|-------0-------0-|
||-----------------------|-------4-------5-|
||o-2--2-----2-2-2-2-2-2-|-2--2----2-2-2---|
||--0--0-----0-0-0-0-0-0-|-0--0----0-0-0---|
|
|   Gtr III
|   PM------------------------|    PM--|
|   E. E. Q  S S S S S S   E. E. E E E E E
||-----------------------|-----------------|
||o----------------------|-----------------|
||-----------------------|-------0-------0-|
||-----------------------|-------4-------5-|
||o-2--2-----2-2-2-2-2-2-|-2--2----2-2-2---|
||--0--0-----0-0-0-0-0-0-|-0--0----0-0-0---|


  C5                               D5
  PM------------------------|      PM--|
  E. E. Q  S S S S S S   E. E.  E  E E E  E   4x
|----------------------|----------------------||
|----------------------|---------------------o||
|----------------------|-------<5>------------||
|-5--5-----5-5-5-5-5-5-|-5--5------7-7-7-<5>--||
|-3--3-----3-3-3-3-3-3-|-3--3------5-5-5-----o||
|----------------------|----------------------||
|
| PM------------------------|      PM--|
| E. E. Q  S S S S S S   E. E.  E  E E E  E   4x
|----------------------|----------------------||
|----------------------|---------------------o||
|----------------------|-------<5>-------<5>--||
|-5--5-----5-5-5-5-5-5-|-5--5------7-7-7------||
|-3--3-----3-3-3-3-3-3-|-3--3------5-5-5-----o||
|----------------------|----------------------||


    E5
    Gtr II
    PM-|    PM--|     PM-|    PM--|
    E. E. E E E E E   E. E. E E E E E
||------------------|-----------------|
||o-----------------|-----------------|
||--------0-------0-|-------0-------0-|
||--------4-------5-|-------4-------5-|
||o-2--2----2-2-2---|-2--2----2-2-2---|
||--0--0----0-0-0---|-0--0----0-0-0---|
|
|   Gtr III
|   PM-|    PM--|     PM-|    PM--|
|   E. E. E E E E E   E. E. E E E E E
||------------------|-----------------|
||o-----------------|-----------------|
||--------0-------0-|-------0-------0-|
||--------4-------5-|-------4-------5-|
||o-2--2----2-2-2---|-2--2----2-2-2---|
||--0--0----0-0-0---|-0--0----0-0-0---|


  C5
  PM-|      PM-------------------|
  E. E.  E  S S S S S S S S   E. E.  E  E E Q   4x
|---------------------------|-------------------||
|---------------------------|------------------o||
|-------<5>-----------------|-------<5>---------||
|-5--5------4-4-5-5-7-7-5-4-|-5--5------5-4-----||
|-3--3----------------------|-3--3----------5--o||
|---------------------------|-------------------||
|
| PM-|      PM-------------------|
| E. E.  E  S S S S S S S S   E. E.  E  E E Q   4x
|---------------------------|-------------------||
|---------------------------|------------------o||
|-------<5>-----------------|-------------------||
|-5--5------4-4-5-5-7-7-5-4-|-5--5--<5>-5-4-----||
|-3--3----------------------|-3--3----------5--o||
|---------------------------|-------------------||


 Bridge
  N.C.                    Cmaj7
  Gtrs II, III
  ~~~~~~~~~~~~~~~
  W          +W            W          +W
|----------|------------|-^0--------|-(0)----|
|----------|------------|-^0--------|-(0)----|
|----------|------------|-^5--------|-(5)----|
|----------|------------|-^5--------|-(5)----|
|-3--------|-(3)--------|-^3--------|-(3)----|
|----------|------------|-----------|--------|


  (Em)
  Gtr IV
  E E E E E E E E   E E E E E E E E   E E E E Q   E E   +Q    Q   E Q.
|-----------------|-----------------|---------3---3-2-|-(2)---3---3-2------|
|-----------0-----|-----------0-----|-----------------|--------------------|
|---------0---0---|---------0---0---|-----------------|--------------------|
|-------2-------2-|-------2-------2-|-------2---------|--------------------|
|-----2-----------|-2---2-----------|-2---2-----------|--------------------|
|---0-------------|---0-------------|---0-------------|--------------------|
|
| Gtr V
| E E E E E E E E   E E E E E E E E   E E E E E Q   E    Q.     Q   E  Q
|-----------------|-----------------|-----------3---3-|--2------3---3--2---|
|---------0-------|---------0-------|---------0-------|--------------------|
|-------0---0-----|-------0---0-----|-------0---------|--------------------|
|-----2-------2---|-----2-------2---|-----2-----------|--------------------|
|---2-----------2-|---2-----------2-|---2-------------|--------------------|
|-0---------------|-0---------------|-0---------------|--------------------|
|
| Gtr VI
| E E E E E E E E   E E E E E E E E   E E E E E E E E    E  E E E E E  E E
|-----------------|-----------------|-----------------|--------------------|
|---------0-------|---------0-------|---------0-------|-----------0--------|
|-------0---0-----|-------0---0-----|-------0---0-----|---------0---0------|
|-----2-------2---|-----2-------2---|-----2-------2---|-------2--------2---|
|---2-----------2-|---2-----------2-|---2-----------2-|-----2------------2-|
|-0---------------|-0---------------|-0---------------|--0-----------------|


  (Em)
  E E E E E E E E   E E E E E E E E
|-----------------|-----------------|
|-----------0-----|-----------0-----|
|---------0---0---|---------0---0---|
|-------2-------2-|-------2-------2-|
|-----2-----------|-2---2-----------|
|---0-------------|---0-------------|
|
| E E E E E E E E   E E E E E E E E
|-----------------|-----------------|
|---------0-------|---------0-------|
|-------0---0-----|-------0---0-----|
|-----2-------2---|-----2-------2---|
|---2-----------2-|---2-----------2-|
|-0---------------|-0---------------|
|
| E E E E E E E E   E E E E E E E E
|-----------------|-----------------|
|---------0-------|---------0-------|
|-------0---0-----|-------0---0-----|
|-----2-------2---|-----2-------2---|
|---2-----------2-|---2-----------2-|
|-0---------------|-0---------------|


  E E E E E   E.        E.        W
|-------------3---------2------|-----------------------------------|
|------------------------------|--3--------------------------------|
|---------0--------------------|-----------------------------------|
|-------2----------------------|-----------------------------------|
|-2---2------------------------|-----------------------------------|
|---0--------------------------|-----------------------------------|
|
|                                Gtr I
| E E E E E.     E.         E     Q.          Q.          Q
|---------3------2-------------|-------------14--------------------|
|---------------------------3--|-12----------------------12--------|
|-------0----------------------|-----------------------------------|
|-----2------------------------|-----------------------------------|
|---2--------------------------|-----------------------------------|
|-0----------------------------|-----------------------------------|
|
| E E E E E   E      E      E     E   E   E   E   E   E   E   E
|------------------------------|-----------------------------------|
|---------0--------------------|-----------------(0)---------------|
|-------0----(0)---------------|-------------(0)-----(0)-----------|
|-----2-------------(2)--------|---------(2)-------------(2)-------|
|---2----------------------(2)-|-----(2)---------------------(2)---|
|-0----------------------------|-(0)-------------------------------|


 Interlude
  Em
  Gtr I
   W             W              H.       Q     +W
|------------|--------------|---3--------2--|--(2)-----|
|------------|--------------|---------------|----------|
|------------|--------------|---------------|----------|
|------------|--------------|---------------|----------|
|------------|--------------|---------------|----------|
|------------|--------------|---------------|----------|
|
| Gtr II
|  <
|  W            +W             +W              +W
|------------|--------------|---------------|----------|
|-<5>--------|-(<5>)--------|-(<5>)---------|-(<5>)----|
|------------|--------------|---------------|----------|
|------------|--------------|---------------|----------|
|------------|--------------|---------------|----------|
|------------|--------------|---------------|----------|
|
| Gtr III
|  W            +W             +W              +W
|--0---------|--(0)---------|--(0)----------|--(0)-----|
|--0---------|--(0)---------|--(0)----------|--(0)-----|
|--0---------|--(0)---------|--(0)----------|--(0)-----|
|--2---------|--(2)---------|--(2)----------|--(2)-----|
|--2---------|--(2)---------|--(2)----------|--(2)-----|
|--0---------|--(0)---------|--(0)----------|--(0)-----|


  Em
    H.       Q     +H      E E E E     H      H        W
|---------------|------------------|---------------|----------|
|---------------|------------------|---------------|----------|
|---------------|------------------|---------------|----------|
|---5--------4--|--(4)-----4h5-4h5-|---4-----------|---2------|
|---------------|------------------|---------------|----------|
|---------------|------------------|---------------|----------|
|
|  +W              +W                 +W              +W
|---------------|------------------|---------------|----------|
|-(<5>)---------|-(<5>)------------|-(<5>)---------|-(<5>)----|
|---------------|------------------|---------------|----------|
|---------------|------------------|---------------|----------|
|---------------|------------------|---------------|----------|
|---------------|------------------|---------------|----------|
|
|  +W              +W                 +W              +W
|--(0)----------|--(0)-------------|--(0)----------|--(0)-----|
|--(0)----------|--(0)-------------|--(0)----------|--(0)-----|
|--(0)----------|--(0)-------------|--(0)----------|--(0)-----|
|--(2)----------|--(2)-------------|--(2)----------|--(2)-----|
|--(2)----------|--(2)-------------|--(2)----------|--(2)-----|
|--(0)----------|--(0)-------------|--(0)----------|--(0)-----|


  Em
    H.       Q     +W
|---------------|--------------|
|---------------|--------------|
|---------------|--------------|
|---5--------4--|--(4)---------|
|---------------|--------------|
|---------------|--------------|
|
|  +W              +W
|---------------|--------------|
|-(<5>)---------|-(<5>)--------|
|---------------|--------------|
|---------------|--------------|
|---------------|--------------|
|---------------|--------------|
|
|  +W              +W
|--(0)----------|--(0)---------|
|--(0)----------|--(0)---------|
|--(0)----------|--(0)---------|
|--(2)----------|--(2)---------|
|--(2)----------|--(2)---------|
|--(0)----------|--(0)---------|


    H.                        Q       +W
|---3-------------------------2----|--(2)------------------------|
|----------------------------------|-----------------------------|
|----------------------------------|-----------------------------|
|----------------------------------|-----------------------------|
|----------------------------------|-----------------------------|
|----------------------------------|-----------------------------|
|
|  +Q          +Q     +Q     +Q       +Q     +Q     +Q     +Q
|----------------------------------|-----------------------------|
|-(<5>)b6.5===(<5>)--(<5>)--(<5>)--|-(<5>)--(<5>)--(<5>)r=(<5>)--|
|----------------------------------|-----------------------------|
|----------------------------------|-----------------------------|
|----------------------------------|-----------------------------|
|----------------------------------|-----------------------------|
|
|  +W                                 +W
|--(0)-----------------------------|--(0)------------------------|
|--(0)-----------------------------|--(0)------------------------|
|--(0)-----------------------------|--(0)------------------------|
|--(2)-----------------------------|--(2)------------------------|
|--(2)-----------------------------|--(2)------------------------|
|--(0)-----------------------------|--(0)------------------------|


  A5
  W                 +W
|-0---------------|-(0)---------------|
|-----------------|-------------------|
|-----------------|-------------------|
|-----------------|-------------------|
|-----------------|-------------------|
|-----------------|-------------------|
|
| W                  W
|-----------------|-------------------|
|-----------------|-------------------|
|-----------------|-------------------|
|-----------------|-------------------|
|-----------------|-------------------|
|-----------------|-------------------|
|
| PM-----------------------------------
| E E E E E E E E    E  E E E E E E E
|-----------------|-------------------|
|-----------------|-------------------|
|-----------------|-------------------|
|-----------------|-------------------|
|-7-7-7-7-7-7-7-7-|--7--7-7-7-7-7-7-7-|
|-5-5-5-5-5-5-5-5-|--5--5-5-5-5-5-5-5-|


  B5                C5
  W                   W
|-2---------------|---3--------------------------|
|-----------------|------------------------------|
|-----------------|------------------------------|
|-----------------|------------------------------|
|-----------------|------------------------------|
|-----------------|------------------------------|
|
| W                   W
|-----------------|-^<5>-------------------------|
|-----------------|-^<5>-------------------------|
|-----------------|-^<5>-------------------------|
|-----------------|-^<5>-------------------------|
|-----------------|------------------------------|
|-----------------|------------------------------|
|
|------------------------------------|
| E E E E E E E E     E   E  E  E  E  E  E  +E
|-----------------|------------------------------|
|-----------------|------------------------------|
|-----------------|------------------------------|
|-----------------|------------------------------|
|-9-9-9-9-9-9-9-9-|--10--10-10-10-10-10-10-(10)\-|
|-7-7-7-7-7-7-7-7-|---8---8--8--8--8--8--8--(8)\-|


   Chorus
    E5
   4/4
    Gtr I
     E  E  E  E E  E  E  E    E  +E   H.
||-------------------------|-----------------------------|
||o------------------------|-----------------------------|
||--11-11-11-11---11-11-11-|-11-(11)\--------------------|
||---x--x--x--x----x--x--x-|--x--(x)---------------------|
||o--9--9--9--9----9--9--9-|--9--(9)\--------------------|
||-------------------------|-----------------------------|
|
|   Gtr II
|                                     PM---------------|
|    E  E  E  E E  E  E  E    E  +E   S  S E S S E S S E
||-------------------------|-----------------------------|
||o------------------------|-----------------------------|
||--11-11-11-11---11-11-11-|-11-(11)\--------------------|
||---x--x--x--x----x--x--x-|--x--(x)---------------------|
||o--9--9--9--9----9--9--9-|--9--(9)\-2--2-2-2-2-2-2-2-2-|
||-------------------------|----------0--0-0-0-0-0-0-0-0-|
|
|   Gtr III
|                                     PM---------------|
|    E  E  E  E E  E  E  E    Q       S  S E S S E S S E
||-------------------------|-----------------------------|
||o------------------------|-----------------------------|
||-------------------------|-----------------------------|
||---9--9--9--9----9--9--9-|--9--------------------------|
||o--7--7--7--7----7--7--7-|--7-------2--2-2-2-2-2-2-2-2-|
||---0--0--0--0----0--0--0-|--0-------0--0-0-0-0-0-0-0-0-|


   E  E  E  E E  E  E  E    H              H
|------------------------|-----------------------------|
|------------------------|-----------------------------|
|-11-11-11-11---11-11-11-|-17-------------16-----------|
|--x--x--x--x----x--x--x-|--x--------------x-----------|
|--9--9--9--9----9--9--9-|-15-------------14-----------|
|------------------------|-----------------------------|
|
|                                   PM---------------|
|  E  E  E  E E  E  E  E    E  +E   S S E  S S E S S E
|------------------------|-----------------------------|
|------------------------|-----------------------------|
|-11-11-11-11---11-11-11-|-11-(11)\--------------------|
|--x--x--x--x----x--x--x-|--x--(x)---------------------|
|--9--9--9--9----9--9--9-|--9--(9)\-2-2-2--2-2-2-2-2-2-|
|------------------------|----------0-0-0--0-0-0-0-0-0-|
|
|                                   PM---------------|
|  E  E  E  E E  E  E  E    Q       S S E  S S E S S E
|------------------------|-----------------------------|
|------------------------|-----------------------------|
|------------------------|-----------------------------|
|--9--9--9--9----9--9--9-|--9--------------------------|
|--7--7--7--7----7--7--7-|--7-------2-2-2--2-2-2-2-2-2-|
|--0--0--0--0----0--0--0-|--0-------0-0-0--0-0-0-0-0-0-|


  C5
  Gtrs I, II
   E  E  E  E  E  E  E  E    E  E  E  E  E  E  E  E
|-------------------------|-------------------------|
|-------------------------|-------------------------|
|-11-11-11-11-11-11-11-12-|-11--9--9--9--9--9--9--9-|
|--x--x--x--x--x--x--x--x-|--x--x--x--x--x--x--x--x-|
|--9--9--9--9--9--9--9-10-|--9--7--7--7--7--7--7--7-|
|-------------------------|-------------------------|
|
| Gtr III
|  E  E  E  E  E  E  E  E    E  E  E  E  E  E  E  E
|-------------------------|-------------------------|
|-------------------------|-------------------------|
|-------------------------|-------------------------|
|-10-10-10-10-10-10-10-10-|-10-10-10-10-10-10-10-10-|
|-10-10-10-10-10-10-10-10-|-10-10-10-10-10-10-10-10-|
|--8--8--8--8--8--8--8--8-|--8--8--8--8--8--8--8--8-|


   E  E  E  E  E  E  E  E    E  E  E  E  E  E  E  E  3x
|-------------------------|--------------------------||
|-------------------------|-------------------------o||
|-11-11-11-11-11-11-11-12-|-11--9--9--9--9--9--9--9--||
|--x--x--x--x--x--x--x--x-|--x--x--x--x--x--x--x--x--||
|--9--9--9--9--9--9--9-10-|--9--7--7--7--7--7--7--7-o||
|-------------------------|--------------------------||
|
|  E  E  E  E  E  E  E  E    E  E  E  E  E  E  E  E  3x
|-------------------------|--------------------------||
|-------------------------|-------------------------o||
|-------------------------|--------------------------||
|-10-10-10-10-10-10-10-10-|-10-10-10-10-10-10-10-10--||
|-10-10-10-10-10-10-10-10-|-10-10-10-10-10-10-10-10-o||
|--8--8--8--8--8--8--8--8-|--8--8--8--8--8--8--8--8--||


  A5
  Gtrs I, II
   E  E  E  E  E  E  E  E    E E E E E E E E
|-------------------------|------------------|
|-------------------------|------------------|
|-11-11-11-11-11-11-11-11-|-11-9-9-9-9-9-9-9-|
|--x--x--x--x--x--x--x--x-|--x-x-x-x-x-x-x-x-|
|--9--9--9--9--9--9--9--9-|--9-7-7-7-7-7-7-7-|
|-------------------------|------------------|
|
| Gtr III
|  PM|         PM|           PM|     PM|
|  E  E  Q     E  E  Q       E E Q   E E Q
|-------------------------|------------------|
|-------------------------|------------------|
|-------------------------|------------------|
|--------7-----------7----|------7-------7---|
|--7--7--7-----7--7--7----|--7-7-7---7-7-7---|
|--5--5--5-----5--5--5----|--5-5-5---5-5-5---|


  B5
   E  E  E  E  E  E  E  E    E E E E E E E E
|-------------------------|------------------|
|-------------------------|------------------|
|-11-11-11-11-11-11-11-11-|-11-9-9-9-9-9-9-9-|
|--x--x--x--x--x--x--x--x-|--x-x-x-x-x-x-x-x-|
|--9--9--9--9--9--9--9--9-|--9-7-7-7-7-7-7-7-|
|-------------------------|------------------|
|
|  PM|         PM|           PM|     PM|
|  E  E  Q     E  E  Q       E E Q   E E Q
|-------------------------|------------------|
|-------------------------|------------------|
|-------------------------|------------------|
|--------9-----------9----|------9-------9---|
|--9--9--9-----9--9--9----|--9-9-9---9-9-9---|
|--7--7--7-----7--7--7----|--7-7-7---7-7-7---|


  C5
   E  E  E  E  E  E  E  E    E  E  E E  E  E  E E
|-------------------------|-----------------------|
|-------------------------|-----------------------|
|-11-11-11-11-11-11-11-11-|-11--9--9-9--9--9--9-9-|
|--x--x--x--x--x--x--x--x-|--x--x--x-x--x--x--x-x-|
|--9--9--9--9--9--9--9--9-|--9--7--7-7--7--7--7-7-|
|-------------------------|-----------------------|
|
|  PM|         PM|           PM|        PM|
|  E  E  Q     E  E  Q       E  E  Q    E  E  Q
|-------------------------|-----------------------|
|-------------------------|-----------------------|
|-------------------------|-----------------------|
|-------10----------10----|-------10---------10---|
|-10-10-10----10-10-10----|-10-10-10---10-10-10---|
|--8--8--8-----8--8--8----|--8--8--8----8--8--8---|


  D5
   E  E  E  E  E  E  E  E    E  E  E E  E  E  E E
|-------------------------|-----------------------|
|-------------------------|-----------------------|
|-11-11-11-11-11-11-11-11-|-11--9--9-9--9--9--9-9-|
|--x--x--x--x--x--x--x--x-|--x--x--x-x--x--x--x-x-|
|--9--9--9--9--9--9--9--9-|--9--7--7-7--7--7--7-7-|
|-------------------------|-----------------------|
|
|  PM|         PM|           PM|        PM|
|  E  E  Q     E  E  Q       E  E  Q    E  E  Q
|-------------------------|-----------------------|
|-------------------------|-----------------------|
|-------------------------|-----------------------|
|-------12----------12----|-------12---------12---|
|-12-12-12----12-12-12----|-12-12-12---12-12-12---|
|-10-10-10----10-10-10----|-10-10-10---10-10-10---|


 Breakdown
  E5
  PM------------------|
  Q  Q  H       E. E. E H
|------------|---------------|
|------------|---------------|
|------------|---------------|
|------------|---------------|
|-2--2-------|--2--2--2------|
|-0--0-------|--0--0--0------|
|
| W            +W
|------------|---------------|
|------------|---------------|
|------------|---------------|
|-2----------|-(2)-----------|
|-2----------|-(2)-----------|
|-0----------|-(0)-----------|


                   1.,2.              3.
    E5
     PM-------------------|            PM-----|
     Q   Q  H       E. E. E H      3x  E.  E.  E  H
||---------------|-----------------||------------------------|
||o--------------|----------------o||------------------------|
||---------------|-----------------||------------------------|
||---------------|-----------------||------------------------|
||o--2---2-------|--2--2--2-------o||--2---2---2-------------|
||---0---0-------|--0--0--0--------||--0---0---0-------------|
|
|   +W             +W              3x  e.  e.  e  e.  e.  E
||---------------|-----------------||------------------------|
||o--------------|----------------o||-13--13--13-13--13--13--|
||---------------|-----------------||-16--16--16-16--16--16--|
||--(2)----------|-(2)-------------||------------------------|
||o-(2)----------|-(2)------------o||------------------------|
||--(0)----------|-(0)-------------||------------------------|


    E5
    Gtrs I, II
    PM-----------------|
    Q  Q  H      E. E. E H     4x
||-------------|---------------||
||o------------|--------------o||
||-------------|---------------||
||-------------|---------------||
||o-2--2-------|-2--2--2------o||
||--0--0-------|-0--0--0-------||


 Outro
  Em                      E5
  Gtr I
  H    H      H    H       E  E   E  E  E  E  E  E
|-0----0----|-0----0----|--------------------------|
|-0----0----|-0----0----|--------------------------|
|-0----0----|-0----0----|-16-16--16-16-16-16-16-16-|
|-2----2----|-2----2----|--------------------------|
|-2----2----|-2----2----|-14-14--14-14-14-14-14-14-|
|-0----0----|-0----0----|--------------------------|
|
| Gtr II
|                             PM----------------|
| H    H      H    H       E  E   E  E  E  E  E  E
|-----------|-----------|--------------------------|
|-----------|-----------|--------------------------|
|-----------|-----------|--------------------------|
|-2----2----|-2----2----|--2-(2)-------------------|
|-2----2----|-2----2----|--2--2---2--2--2--2--2--2-|
|-0----0----|-0----0----|--0--0---0--0--0--0--0--0-|
|
| Gtr III
|                             PM----------------|
| H    H      H    H       E  E   E  E  E  E  E  E
|-0----0----|-0----0----|--------------------------|
|-0----0----|-0----0----|--------------------------|
|-9----9----|-9----9----|--------------------------|
|-9----9----|-9----9----|--9-(9)-------------------|
|-7----7----|-7----7----|--7--7---7--7--7--7--7--7-|
|-----------|-----------|--0--0---0--0--0--0--0--0-|


  E5
   S  S  S  S  S  S  S  S  E Q.     Wx2
|---------------------------------|--------*|
|---------------------------------|--------*|
|-17-17-17-17-17-17-17-17-17------|--------*|
|---------------------------------|--------*|
|-15-15-15-15-15-15-15-15-15------|--------*|
|---------------------------------|--------*|
|
|  PM---------------------|
|  S  S  S  S  S  S  S  S  E Q.     Wx2
|---------------------------------|--------*|
|---------------------------------|--------*|
|---------------------------------|--------*|
|---------------------------------|--------*|
|--2--2--2--2--2--2--2--2--2------|--------*|
|--0--0--0--0--0--0--0--0--0------|--------*|
|
|  PM---------------------|
|  S  S  S  S  S  S  S  S  E Q.     Wx2
|---------------------------------|--------*|
|---------------------------------|--------*|
|---------------------------------|--------*|
|---------------------------------|--------*|
|--7--7--7--7--7--7--7--7--7------|--------*|
|--0--0--0--0--0--0--0--0--0------|--------*|





Comments


Popular Bled tabs & chords
His First Crush Bass Tabs
I Never Met Another Gemini Bass Tabs
Ruth Buzzi Better Watch Her Back 1 Bass Tabs
Sound Of Sulfur 1 Bass Tabs
You Know Who's Seatbelt Bass Tabs
I Never Met Another Gemini Tabs
Last American Cowboy Intro 1 Tabs
Porcelain Hearts And Hammers For Teeth (Intro Ver 2) Tabs
Ruth Buzzi Better Watch Her Back Tabs
Smoke Breaks Tabs


Song lyrics



↑ Back to top | Tablatures and chords are parodies/interpretations of the original songs. You may use it for private study, scholarship, research or language learning purposes only
© 2014 AZChords.com Contact us | Privacy policy | DMCA | Add/correct tabs | Request tabs | Top 50 tabs