>
 >
Porcelain Hearts And Hammers For Teeth

Porcelain Hearts And Hammers For Teeth Guitar Tabs

Bled - Porcelain Hearts And Hammers For Teeth chords, tabs, tablatures, lyrics

Guitar lessons | Add/correct | Request | Top 50 tabs Artists:  A B C D E F G H I J K L M N O P Q R S T U V W X Y Z 0-9

Porcelain Hearts And Hammers For Teeth Guitar Tabs – Bled

CD, Sheet music, Poster

Do you like Porcelain Hearts And Hammers For Teeth? Share with your friends now
Bass TabsTabsTabs v2
-------------------------------------------------------------------------------
                Porcelain Hearts and Hammers For Teeth - The Bled
-------------------------------------------------------------------------------
This Tab is pretty much perfect. Enjoy!
Tuning:D
 Guitar 1
e|-17~-----------------------------------------------------------------------------|
B|---------------------------------------------------------------------------------|
G|-----------------------------------------------(X4)------------------------------|
D|---------------------------------------------------------------------------------|
A|---------------------------------------------------------------------------------|
D|---------------------------------------------------------------------------------|
 Guitar 2
e|-------13------13-----------13-----13----------13----13---------13----13---------|
B|----15------15-----15----15-----15-----15---15-----15----15---15----15----15-----|
G|---------------------------------------------------------------------------------|
D|--12-----12------12---14-----14------14---15-----15----15---15----15----15-------|
A|---------------------------------------------------------------------------------|
D|---------------------------------------------------------------------------------|
 
e|-------13------13-----------13-----13----------13------13-----------13-----------|
B|----15------15-----15----15-----15-----15----15------15-----15----15-------------|
G|------------------------------------------------------------------------(X4)-----|
D|--12-----12------12---14-----14------14------------------------------------------|
A|-------------------------------------------12------12-----12----12---------------|
D|---------------------------------------------------------------------------------|
 Guitar 1
e|--17~----12~-----13~-----17~------12~------5~------------------------------------|
B|---------------------------------------------------------------------------------|
G|----------------------------------------------------(X4)-------------------------|
D|---------------------------------------------------------------------------------|
A|---------------------------------------------------------------------------------|
D|---------------------------------------------------------------------------------|
  Guitar 2
e|--------13----13---------13----13------------13----13---------13----13-----------|
B|------15----15----15---15----15----15------15----15----15---15----15----15-------|
G|----------------------------------------------------------------------------(X4)-|
D|---------------------------------------12----12------12---12----12----12---------|
A|---13-----13----13---15----15----15----------------------------------------------|
D|---------------------------------------------------------------------------------|
   Little breakdown part
e|----------13---17-13-------------------------------------------------------------|
B|--------15------------15-------(X4)----------------------------------------------|
G|------14-----14-----14-----------------------------------------------------------|
D|---------------------------------------------------------------------------------|
A|---------------------------------------------------------------------------------|
D|---------------------------------------------------------------------------------|
  Guitar 1
e|---17--------17-------18---------------------------------------------------------|
B|--------18--------18-------------------------------------------------------------|
G|-----19--------19---------------(X6)---------------------------------------------|
D|---------------------------------------------------------------------------------|
A|---------------------------------------------------------------------------------|
D|---------------------------------------------------------------------------------|
  Guitar 2
e|---------------------------------------------------------------------------------|
B|---------------------------------------------------------------------------------|
G|---------------------------------------------------------------------------------|
D|--12-12-12---14--14--14---15--15--15---15--15--15--------------------------------|
A|-----------------15--15---17--17--17---17--17--17--------------------------------|
D|---------------------------------------------------------------------------------|

e|---------------------------------------------------------------------------|
B|---------------------------------------------------------------------------|
G|---------------------------------------------------------------------------|
D|--12-12-12---14--14--14--14--14--14----14--14--14--------------------------|
A|--13-13-13---15--15--15--16--16--16----16--16--16--------------------------|
D|---------------------------------------------------------------------------|

e|---------------------------------------------------------------------------|
B|---------------------------------------------------------------------------|
G|---------------------------------------------------------------------------|
D|--12-12-12---14--14--14---15--15--15---15--15--15--------------------------|
A|--13-13-13---15--15--15---17--17--17---17--17--17--------------------------|
D|---------------------------------------------------------------------------|

e|---------------------------------------------------------------------------|
B|---------------------------------------------------------------------------|
G|---------------------------------------------------------------------------|
D|--12-12-12---10-10-10--10~-------------------------------------------------|
A|--13-13-13---12-12-12--11~-------------------------------------------------|
D|---------------------------------------------------------------------------|

e|---------------------------------------------------------------------------|
B|---------------------------------------------------------------------------|
G|---------------------------------------------------------------------------|
D|--12-12-12---14--14--14---15--15--15---15--15--15--------------------------|
A|--13-13-13---15--15--15---17--17--17---17--17--17--------------------------|
D|---------------------------------------------------------------------------|
Now for the Fun Part
e|---------------------------------------------------------------------------|
B|---------------------------------------------------------------------------|
G|----10-------12------------------------------------------------------------|
D|----10--X3---12--X3--------------------------------------------------------|
A|----8--------10------------------------------------------------------------|
D|----8--------10------------------------------------------------------------|

e|---------------------------------------------------------------------------|
B|---------------------------------------------------------------------------|
G|---------8-8-------8-8----------------8-8-8--------------------------------|
D|----000-------000-----------------000--------x4---x1-----------------------|
A|----000--6-6--000--6-6-------1----000-6-6-6--x4---x1-----------------------|
D|----000-------000--------2-3---2--000--------x4---x1-----------------------|

e|---------------------------------------------------------------------------|
B|---------------------------------------------------------------------------|
G|---------8-8-------8-8-----------------------------------------------------|
D|----000-------000-----------------444--111---------------------------------|
A|----000--6-6--000--6-6------1-----444--111---------------------------------|
D|----000-------000-------2-3---2---444--111---------------------------------|

e|---------------------------------------------------------------------------|
B|---------------------------------------------------------------------------|
G|---------8-8-------8-8----------------8-8-8--------------------------------|
D|----000-------000-----------------000--------x3---x1-----------------------|
A|----000--6-6--000--6-6-------1----000-6-6-6--x3---x1-----------------------|
D|----000-------000--------2-3---2--000--------x3---x1-----------------------|

e|---------------------------------------------------------------------------|
B|---------------------------------------------------------------------------|
G|---------8-8-------8-8-----------------------------------------------------|
D|----000-------000-----------------444--111---------------------------------|
A|----000--6-6--000--6-6------1-----444--111---------------------------------|
D|----000-------000-------2-3---2---444--111---------------------------------|

e|------------------------------5h0---------5h0-----------5h0----------------|
B|----------------------------------4h0-3h------4h0-3h--------4h0-3h---------|
G|---------------------------------------------------------------------------|
D|----5-5-5---8--8--8----------------------------------x5--------------x5-x5-|
A|----6-6-6---10-10-10---------------------------------x6--------------x6-x6-|
D|----6-6-6---8--8--8----------------------------------x6--------------x6-x6-|

e|---------------------------------------------------------------------------|
B|---------------------------------------------------------------------------|
G|-----------------------------8-----8---------------8-----8--8--8-----------|
D|----5-5-5-5--8--8--8--8---0-----0---------------0-----0--------------------|
A|----6-6-6-6--10-10-10-10--0--6--0--6-------1----0--6--0--6--6--6-----------|
D|----6-6-6-6--8--8--8--8---0-----0------2-3---2--0-----0--------------------|

e|---------------------------------------------------------------------------|
B|---------------------------------------------------------------------------|
G|---------------------------------------------------------------------------|
D|---5-5-5-5---8--8--8--8---5-5-5-5---5-5-5----------------------------------|
A|---6-6-6-6---10-10-10-10--5-5-5-5---5-5-5----------------------------------|
D|---6-6-6-6---8--8--8--8---5-5-5-5---5-5-5----------------------------------|

e|---------------------------------------------------------------------------|
B|---------------------------------------------------------------------------|
G|---8------8---------------------8------8-----------------------------------|
D|---8-X16--8-X16--5------6-------8-X16--8-X16--5------5~---5~---------------|
A|---6------5------5-X16--6-X16---6------5------5-X16--6~---6~---------------|
D|-----------------5------6---------------------5------6~---6~---------------|

e|-------------------------------------------------------------------8~-------------|
B|----------------------------------------------------------------------------------|
G|---3--1--0--------0---0----0--------------8-------8-------8-------------(X2)------|
D|-----------1----1----1----1-------0--666666--666666--666666--6666-----------------|
A|--------------3----3----3----3--1----666666--666666--666666--6666-----------------|
D|-------------------------------------666666--666666--666666--6666-----------------|

e|----------------------------------------------------------------------------------|
B|----------------------------------------------------------------------------------|
G|---3--1--0--------0---0----0--------------8-------8-------8-------8---------------|
D|-----------1----1----1----1-------0--666666--666666--666666--666666---------------|
A|--------------3----3----3----3--1----666666--666666--666666--666666---------------|
D|-------------------------------------666666--666666--666666--666666---------------|

e|---------------------------------------------------------------------------|
B|---------------------------------------------------------------------------|
G|---------------------------------------------------------------------------|
D|--------7-------7----------------------------------------------------------|
A|---555555--555555--55555---3------3------6---------------------------------|
D|---555555--555555--55555---3--X6--6--X6--3--X12----------------------------|
e|---555555--555555--55555---3------3------3---------------------------------|
   Guitar 1
e|---------------------------------------------------------------------------|
B|---------------------------------------------------------------------------|
G|--5------------------------5-4-5-7-5-4------------5------------------------|
D|--5--X6--6-------3---------------------5-6--------3--X6--6------1----------|
A|--3------6--X6---3--X6----------------------------3------6--X6--1--X11-----|
D|---------6-------3---------------------------------------6------1----------|
   Guitar 2
e|------------------------------------11-10--------------------------------------|
B|---------------------------9-8-9-11-------8-9----------------------------------|
G|--5-------10--------------------------------------5------10-----8-------8-7----|
D|----X6-------X6---3----------------------------------X6-----X6-----X6-------5^-|
A|--3-------8-------3--X6---------------------------3------8------6--------------|
D|------------------3------------------------------------------------------------|
   Guitar 1
e|---------------------------------------------------------------------------|
B|---------------------------------------------------------------------------|
G|--5------------------------5-4-5-7-5-4------------5------------------------|
D|--5--X6--6-------3---------------------5-6--------3--X6--6------0~---------|
A|--3------6--X6---3--X6----------------------------3------6--X6--0~---------|
D|---------6-------3---------------------------------------6------0~---------|
   Guitar 2
e|------------------------------------11-10----------------------------------|
B|---------------------------9-8-9-11-------8-9------------------------------|
G|--5-------10--------------------------------------5------10----------------|
D|----X6-------X6---3----------------------------------X6---------0~---------|
A|--3-------8-------3--X6---------------------------3------8--X6--0~---------|
D|------------------3---------------------------------------------0~---------|
  Guitar 1
e|---------------------------------------------------------------------------|
B|---------------------------------------------------------------------------|
G|---------------------------------------------------------------------------|
D|---0~---00000000------------------------66666666---------------------------|
A|---0~---00000000-(palm mute)-X2---------00000000--(palm mute)--------------|
D|---0~---00000000------------------------00000000---------------------------|
  Guitar 2 
e|---------------------------------------------------------------------------|
B|---------------------------------------------------------------------------|
G|-------------------------------------------8------10-----12----------------|
D|---6~----6-6-6-6-6-6-6-6----------------------X8-----X8------X16-----------|
A|---0~---5-5-5-5-5-5-5-5---(palm mute)-X2---6------8------10----------------|
D|---0~----------------------------------------------------------------------|
  Guitar 1 
e|---------------------------------------------------------------------------|
B|--------4-3-43-------------------------------------------------------------|
G|--------7-7-77-------------------------------------------------------------|
D|--------777777-------------------------------------------------------------|
A|---------------------------------------------------------------------------|
D|---------------------------------------------------------------------------|
  Guitar 2
e|---------------------------------------------------------------------------|
B|---------------------------------------------------------------------------|
G|---------------------------------------------------------------------------|
D|---6-5------------------6-5-0--6-5--0-5--6-5-------------------------------|
A|---6-5------------------6-5-0--6-5--0-5--6-5-------------------------------|
D|---6-5------------------6-5-0--6-5--0-5--6-5-------------------------------|

| /  slide up
| \  slide down
| h  hammer-on
| ^  bend
| ~  ring out
| +  harmonic
| x  Mute note
   
===============================================================================





Comments


Popular Bled tabs & chords
His First Crush Bass Tabs
Ruth Buzzi Better Watch Her Back 1 Bass Tabs
Sound Of Sulfur Bass Tabs
Sound Of Sulfur 1 Bass Tabs
We Are The Industry Bass Tabs
Asleep On The Frontlines Intro Tabs
I Never Met Another Gemini (Intro) Tabs
I Never Met Another Gemini 1 Tabs
Red Wedding Tabs
Ruth Buzzi Better Watch Her Back Tabs


Song lyrics



↑ Back to top | Tablatures and chords are parodies/interpretations of the original songs. You may use it for private study, scholarship, research or language learning purposes only
© 2014 AZChords.com Contact us | Privacy policy | DMCA | Add/correct tabs | Request tabs | Top 50 tabs