» » »

Bled, Hotel Coral Essex Bass tabs (ver.1)

Artists:  A B C D E F G H I J K L M N O P Q R S T U V W X Y Z # 

Hotel Coral Essex Bass tabs (ver.1)

Bled Tabs
 Rating:
4/5 (4 votes)
Hotel Coral Essex lessons Tabs too difficult? Try these video lessons and learn fast
1
                Band: The Bled


\ = Slide Down
~ = Let Ring
/ = Slide Up

00:42
G ------------------|
D ------------------|
A ------------------|
D 0--0---0-------0~-|


00:50
G ----------------|
D ----------------|
A ----------------|
D 888877775555-3-2


00:53
G --------------------------------|
D --------------------------------|
A --------------------------------|    (x3)
D 0-88888-7777777-33333-5555-3----|


01:08
G ----------------------------|
D ----------------------------|
A ----------------------------|
D 0-88888-7777777-33333-5~-0~-|


01:20
G ---------------------------|
D ---------------------------|
A ---------------------------|    (x3)
D 0000000000000000-8/11\7/11\


01:36
G ------------------------------|
D ------------------------------|
A ------------------------------|
D 8888888888888888/11(x16)-0~-0~


01:53
G -------------------|
D -------------------|
A -------------------|
D 0-0------------0-0-|


02:00
G ------------------------------|
D ------------------------------|
A ------------------------------|
D 8888888888888888/11-11-11-11\-|


02:03
G -------------|
D -------------|
A -------------|
D 8-7--11-7--0-|

G ---------------|
D ---------------|
A ---------------|
D 8-7--11--00000-|

G -------------|
D -------------|
A -------------|
D 8-7--11-7--0-|

G ----------------|
D ----------------|
A ----------------|
D 8-7-0-11--00000-|

G -------------|
D -------------|
A -------------|
D 8-7--11-7--0-|

G -----------------|
D -----------------|
A -----------------|
D 8-7-0-8-77-535-0-|

G -----------------|
D -----------------|
A -----------------|
D 8-7-0-8-77-535-0-|

G ------------|
D ------------|
A ------------|
D 8-7-0-8~11~-|


02:26
G --------|
D --------|
A --------|
D 8-7-5-3-|


02:28
G --------------------------------|
D --------------------------------|
A --------------------------------|    (x3)
D 0-88888-7777777-33333-5555-3----|

G -----------------------------------|
D -----------------------------------|
A -----------------------------------|
D 0-88888-7777777-33333-55555555-5~0-|


Pause until

03:12
G ----
D ----
A ----
D 8~7~


03:13
G ------------------------------------|
D ------------------------------------|
A ------------------------------------|
D 0000000--00000----0000000--00000----|

G --------------------------------|
D --------------------------------|
A --------------------------------|
D 5555555--55555---3333333-22--22-|

G ------------------------------------|
D ------------------------------------|
A ------------------------------------|
D 0000000--00000----0000000--00000----|

G -----------------------|
D -----------------------|
A ---5-------------------|
D 55~-5-5555555-3~3~2~2~-|

G ------------------------------------|
D ------------------------------------|
A ------------------------------------|
D 0000000--00000----0000000--00000----|

G ---------------------------------|
D ---------------------------------|
A ---------------------------------|
D 5555555--55555---3333333--22--22-|


03:46
G ------------------------------------|
D ------------------------------------|
A ------------------------------------|
D 0000000--00000----0000000--00000----|

G --------------------------------|
D --------------------------------|
A --------------------------------|
D 5555555-5/17\---3333333-222-222-|

G ------------------------------------|
D ------------------------------------|
A ------------------------------------|
D 0000000--00000----0000000--00000----|

G --------------------------------|
D --------------------------------|
A --------------------------------|
D 5555555-5/17\---3333333-222-222-|
            
Submit corrections

comments powered by Disqus
↑ Back to top | Bled Bass for Hotel Coral Essex. Lyrics for acoustic guitar and electric guitar. 1 Tablatures and chords are parodies/interpretations of the original songs. You may use it for private study, scholarship, research or language learning purposes only