>
 >
Hotel Coral Essex

Hotel Coral Essex Guitar Tabs

Bled - Hotel Coral Essex chords, tabs, tablatures, lyrics

Guitar lessons | Add/correct | Request | Top 50 tabs Artists:  A B C D E F G H I J K L M N O P Q R S T U V W X Y Z 0-9

Hotel Coral Essex Guitar Tabs – Bled

CD, Sheet music, Poster

Do you like Hotel Coral Essex? Share with your friends now
Bass TabsTabs
What's up! Just thought I'd tab this song out. I submitted a guitar pro for
this song but I made the the mistake of doing so without making an account.
After setting one up, I thought I'd try transcribing my guitar pro into a
power tab, so I did. I figured I might as well submit a text version for
those of you that don't have access to Guitar Pro or Power tab. (Or for those
of you who just like to kick it old school with text!)


                        Copy Right:  Vagrant Records 2005



Left Speaker Guitar (Jeremy Ray talley?)


 
   (0:00)
     E  E  E  E  E  E  E  E  E     E  E  E  E  E  E  E  E  E  E   
D||--------8--------7--------0--|--------8--------7--------0-----|
A||-----6--------6--------6-----|-----6-----6--------6--------6--|
F||--9--------9--------9--------|--9-----------9--------9--------|
C||-----------------------------|--------------------------------|
G||-----------------------------|--------------------------------|
D||-----------------------------|--------------------------------|


  E  E  E  E  E  E  E  E  E     E  E  E  E  E  E  E  E   
-----8--------7--------0-----|-----0--------0-----------|
--------6--------6--------6--|--------6--------6-----6--|
--9--------9--------9--------|--------------------------|
-----------------------------|--8--------8--------8-----|
-----------------------------|--------------------------|
-----------------------------|--------------------------|


  E  E  E  E  E  E  E  E     E  E  E  E  E  E  E  E   
-----0--------0-----------|--------0-----------0-----|
--------6--------6-----6--|-----6-----6-----6-----6--|
--------------------------|--9-----------9-----------|
--9--------9--------9-----|--------------------------|
--------------------------|--------------------------|
--------------------------|--------------------------|


  E  E  E  E  E  E  E  E     E  E  E  E  E  E  E  E     E  E  E  E   
--8--------7--------0-----|-----0--------0-----0-----|-----0-----0--|
-----6--------6--------6--|--------6--------6-----6--|--------6-----|
--------9--------9--------|--------------------------|--------------|
--------------------------|--7--------7--------------|--8-----------|
--------------------------|--------------------------|--------------|
--------------------------|--------------------------|--------------|

                    (0:42)
  W                   E  E  H        E  E     W                 
--0----------------|-----------------------|-------------------|
--6----------------|-----------------------|-------------------|
--9----------------|-----------------------|-------------------|
--9----------------|--2--------------2-----|-------------------|
-------------------|--2--------------2-----|-------------------|
-------------------|--0--------------0-----|-------------------|

                                          (0:46)
  E  E  H.              W                   W                 
---------------------|-------------------|-------------------|
---------------------|-------------------|-------------------|
---------------------|-------------------|-------------------|
--2------------------|-------------------|--2----------------|
--2------------------|-------------------|--2----------------|
--0------------------|-------------------|--0----------------|

                    (0:50)
  W                    E   E   E   E   E   E   E   E   
-------------------|----------------------------------|
-------------------|--13--13--13--13--12--12--12--12--|
-------------------|----------------------------------|
--L----------------|--10--10--10--10---9---9---9---9--|
--L----------------|----------------------------------|
--L----------------|----------------------------------|

                                   (0:53)
   E   E   E   E   E   E   E   E     Q    Q    E  E  Q     
----------------------------------|-----------------------|
----------------------------------|-----------------------|
--14--14--14--14--12--12--11--11--|-------5----5--5-------|
----------------------------------|--2----5----5--5--2----|
--12--12--12--12--10--10---9---9--|--2----3----3--3--2----|
----------------------------------|--0---------------0----|


  E  E  E  E  E  E  E  E     E   E  Q    E  E  E  E     Q    E  E  E  E  Q     
--------------------------|--------------------------|------------------------|
--------------------------|--------------------------|------------------------|
--------------------------|--------------------------|------------------------|
--9--9--9--9--9--9--9--9--|--9s--5--5----5--5--5--5--|--7----7--7--7--7--5----|
--9--9--9--9--9--9--9--9--|--9s--5--5----5--5--5--5--|--7----7--7--7--7--5----|
--7--7--7--7--7--7--7--7--|--7s--3--3----3--3--3--3--|--5----5--5--5--5--3----|


  Q    Q    E  E  Q       E  E  E  E  E  E  E  E     E   E  Q    E  E  E  E   
-----------------------|--------------------------|--------------------------|
-----------------------|--------------------------|--------------------------|
-------5----5--5-------|--------------------------|--------------------------|
--2----5----5--5--2----|--9--9--9--9--9--9--9--9--|--9s--5--5----5--5--5--5--|
--2----3----3--3--2----|--9--9--9--9--9--9--9--9--|--9s--5--5----5--5--5--5--|
--0---------------0----|--7--7--7--7--7--7--7--7--|--7s--3--3----3--3--3--3--|

                          (1:03)
  Q    E  E  E  E  Q       Q    E  E  E  E  E  E     E  E  E  E  E  E  E  E    
------------------------|-------------------------|---------------------------|
------------------------|-------7--7--7--7--x--x--|--8--8--8--8--8--8--7--L\--|
------------------------|-------------------x--x--|---------------------------|
--7----7--7--7--7--5----|--2----4--4--4--4--x--x--|--5--5--5--5--5--5--4--L\--|
--7----7--7--7--7--5----|--2----------------------|---------------------------|
--5----5--5--5--5--3----|--0----------------------|---------------------------|

                                                       (1:09)
  Q    E  E  E  E  E  E     E  E  E  E  E  E  E  E      Q    E  E  E  E  E  E   
-------7--7--7--7--7--7--|--8--8--8--8--8--8--7--L\--|-------------------------|
-------------------------|---------------------------|-------7--7--7--7--x--x--|
-------4--4--4--4--4--4--|--5--5--5--5--5--5--4--L\--|-------------------x--x--|
-------------------------|---------------------------|--2----4--4--4--4--x--x--|
--0----------------------|---------------------------|--2----------------------|
-------------------------|---------------------------|--0----------------------|

                                                       (1:12)
  E  E  E  E  E  E  E  E      Q    E  E  E  E  E  E     W                 
---------------------------|-------7--7--7--7--7--7--|-------------------|
--8--8--8--8--8--8--7--L\--|-------------------------|--8----------------|
---------------------------|-------4--4--4--4--4--4--|-------------------|
--5--5--5--5--5--5--4--L\--|-------------------------|--5----------------|
---------------------------|--0----------------------|-------------------|
---------------------------|-------------------------|-------------------|

                    (1:15)
  W                   W                   W                   W                 
-------------------|-------------------|-------------------|-------------------|
--L----------------|-------------------|-------------------|-------------------|
-------------------|-------------------|-------------------|-------------------|
--L----------------|--2----------------|--L----------------|--L----------------|
-------------------|--2----------------|--L----------------|--L----------------|
-------------------|--0----------------|--L----------------|--L----------------|


(1:19)                  (1:20)                     (1:20) 
                NH                                                           
  H.             E  E     E  E  E  E  E  E  E  E     E  E  E  E  E  E  E E   
-----------------<>5-----|--------------------------|--------------------------|
-----------------------|--------------------------|--------------------------|
-----------------------|--------------------------|-----------------------5--|
--L--------------------|--2--2--2--2--2--2--2--2--|--2--2--2--2--2--2--2-----|
--L--------------------|--2--2--2--2--2--2--2--2--|--2--2--2--2--2--2--2--3--|
--L--------------------|--0--0--0--0--0--0--0--0--|--0--0--0--0--0--0--0-----|

                                               
  E  E  E  Q    E  E  E     E  E  E  Q    E  E  E     E  E  E  E  E  E  E  E   
-------------------------|-------------------------|--------------------------|
-------------------------|-------------------------|--------------------------|
--L--5--5--9----9--9--4--|--L--4--4--8----8--8-----|--------------------------|
-------------------------|----------------------2--|--L--2--2--2--2--2--2--2--|
--L--3--3--7----7--7--2--|--L--2--2--6----6--6--2--|--L--2--2--2--2--2--2--2--|
-------------------------|----------------------0--|--L--0--0--0--0--0--0--0--|


  E  E  E  E  E  E  E  E     E  E  E  Q    E  E  E     E  E  E  Q    E  E  E   
--------------------------|-------------------------|-------------------------|
--------------------------|-------------------------|-------------------------|
-----------------------5--|--L--5--5--9----9--9--4--|--L--4--4--8----8--8-----|
--2--2--2--2--2--2--2-----|-------------------------|----------------------2--|
--2--2--2--2--2--2--2--3--|--L--3--3--7----7--7--2--|--L--2--2--6----6--6--2--|
--0--0--0--0--0--0--0-----|-------------------------|----------------------0--|


  E  E  E  E  E  E  E  E     E  E  E  E  E  E  E  E     E  E  E  Q    E  E  E   
--------------------------|--------------------------|-------------------------|
--------------------------|--------------------------|-------------------------|
--------------------------|-----------------------5--|--L--5--5--9----9--9--4--|
--L--2--2--2--2--2--2--2--|--2--2--2--2--2--2--2-----|-------------------------|
--L--2--2--2--2--2--2--2--|--2--2--2--2--2--2--2--3--|--L--3--3--7----7--7--2--|
--L--0--0--0--0--0--0--0--|--0--0--0--0--0--0--0-----|-------------------------|

                          (1:36)
  E  E  E  Q    E  E  E     E  E  E  E  E  E  E  E     E  E  E  E  E  E  E  E   
-------------------------|--------------------------|--------------------------|
-------------------------|--------------------------|--------------------------|
--L--4--4--8----8--8--5--|--L--5--5--5--5--5--5--5--|--5--5--5--5--5--5--5--8--|
----------------------5--|--L--5--5--5--5--5--5--5--|--5--5--5--5--5--5--5--7--|
--L--2--2--6----6--6--3--|--L--3--3--3--3--3--3--3--|--3--3--3--3--3--3--3--6--|
-------------------------|--------------------------|--------------------------|


  E  E  E  E  E  E  E  E     E  E  E  E  E  E  E  E   
--------------------------|--------------------------|
--------------------------|--------------------------|
--L--8--8--8--8--8--8--8--|--8--8--8--8--8--8--8--8--|
--L--7--7--7--7--7--7--7--|--7--7--7--7--7--7--7--7--|
--L--6--6--6--6--6--6--6--|--6--6--6--6--6--6--6--6--|
--------------------------|--------------------------|

(1:42)
  E  E  E  E  E  E  E  E     E  E  E  E  E  E  E  E   
--0-----0--0--0-----0--0--|--0-----0--0--0-----0--0--|
-----6-----------6--------|-----6-----------6--------|
--------------------------|--------------------------|
--------------------------|--------------------------|
--------------------------|--------------------------|
--------------------------|--------------------------|


   E   E  E  E  E  E  E  E     E  E  E  E  E  E  E  E   
-------------0-----------0--|-----------0-----------0--|
--(x)--0-----------0--------|-----0-----------0--------|
---5------5-----5-----5-----|--5-----5-----8-----8-----|
----------------------------|--------------------------|
----------------------------|--------------------------|
----------------------------|--------------------------|


   E   E  E  E  E  E  E  E     E  E  E  E  E  E  E  E   
---0------0--0--0-----0--0--|--0-----0--0--0-----0--0--|
--(x)--6-----------6--------|-----6-----------6--------|
--(x)-----------------------|--------------------------|
----------------------------|--------------------------|
----------------------------|--------------------------|
----------------------------|--------------------------|


  E  E  E  E  E  E  E  E     E   E  E  E  E  E  E  E   
--0-----0--0--0-----0--0--|--0------0--0--0-----0--0--|
-----8-----------8--------|-----10-----------8--------|
--------------------------|---------------------------|
--------------------------|---------------------------|
--------------------------|---------------------------|
--------------------------|---------------------------|

(1:52)
  PM PM PM PM PM PM PM PM    PM PM PM PM PM PM PM PM  
  E  E  E  E  E  E  E  E     E  E  E  E  E  E  E  E   
--0-----0--0--0-----0--0--|--0-----0--0--0-----0--0--|
-----6-----------6--------|-----6-----------6--------|
--------------------------|--------------------------|
--------------------------|--------------------------|
--------------------------|--------------------------|
--------------------------|--------------------------|


   PM  PM PM PM PM PM PM PM    PM PM PM PM PM PM PM PM  
   E   E  E  E  E  E  E  E     E  E  E  E  E  E  E  E   
-------------0-----------0--|-----------0-----------0--|
--(x)--0-----------0--------|-----0-----------0--------|
---5------5-----5-----5-----|--5-----5-----8-----8-----|
----------------------------|--------------------------|
----------------------------|--------------------------|
----------------------------|--------------------------|


   PM  PM PM PM PM PM PM PM    PM PM PM PM PM PM PM PM  
   E   E  E  E  E  E  E  E     E  E  E  E  E  E  E  E   
---0------0--0--0-----0--0--|--0-----0--0--0-----0--0--|
--(x)--6-----------6--------|-----6-----------6--------|
--(x)-----------------------|--------------------------|
----------------------------|--------------------------|
----------------------------|--------------------------|
----------------------------|--------------------------|


   E    E   E   E   E   E   E   E      E   E   E   E   E   E   E   E   
--(x)------------------------------|----------------------------------|
--(x)--13------13------13------13--|------13------13------13------13--|
--16-------16------16------16------|--16------16------16------16------|
-----------------------------------|----------------------------------|
-----------------------------------|----------------------------------|
-----------------------------------|----------------------------------|

(2:03)
   PM PM PM PM           PM PM PM PM                    PM       
   S  S  S  S  Q    Q    S  S  S  S     Q    E   E   E  E  Q     
--(x)--------------------------------|--------------------------|
--(x)--------------------------------|--------------------------|
--(x)----------5----4----------------|--8-----------------------|
--(x)--------------------------------|-------4s--5s--4-----3----|
---2--2--2--2--3----2----2--2--2--2--|--6----4s--5s--4--2--3----|
---0--0--0--0------------0--0--0--0--|-------2s--3s--2--0--1----|


  PM PM PM PM           PM PM                    PM       
  S  S  S  S  Q    Q    E  E     Q    E   E   E  E  Q     
------------------------------|--0-----------------------|
------------------------------|--4-----------------------|
--------------5----4----------|--------------------------|
------------------------------|-------4s--5s--4-----3----|
--2--2--2--2--3----2----2--2--|-------4s--5s--4--2--3----|
--0--0--0--0------------0--0--|-------2s--3s--2--0--1----|


  PM PM PM PM           PM PM PM PM                    PM       
  S  S  S  S  Q    Q    S  S  S  S     Q    E   E   E  E  Q     
------------------------------------|--------------------------|
------------------------------------|--------------------------|
--------------5----4----------------|--8-----------------------|
------------------------------------|-------4s--5s--4-----3----|
--2--2--2--2--3----2----2--2--2--2--|--6----4s--5s--4--2--3----|
--0--0--0--0------------0--0--0--0--|-------2s--3s--2--0--1----|

                               
  PM PM PM PM           PM PM         PM PM PM PM       
  S  S  S  S  Q    Q    E  E     Q    E  E  E  E  Q     
------------------------------|--0----------------0----|
------------------------------|--4----------------4----|
--------------5----4----------|------------------------|
------------------------------|------------------------|
--2--2--2--2--3----2----2--2--|-------2--2--2--2-------|
--0--0--0--0------------0--0--|-------0--0--0--0-------|

(2:13)
  PM PM PM PM           PM PM PM PM                    PM       
  S  S  S  S  Q    Q    S  S  S  S     Q    E   E   E  E  Q     
------------------------------------|--------------------------|
------------------------------------|--------------------------|
--------------5----4----------------|--8-----------------------|
------------------------------------|-------4s--5s--4-----3----|
--2--2--2--2--3----2----2--2--2--2--|--6----4s--5s--4--2--3----|
--0--0--0--0------------0--0--0--0--|-------2s--3s--2--0--1----|


  PM PM PM PM           PM PM                    PM       
  S  S  S  S  Q    Q    E  E     Q    E   E   E  E  Q     
------------------------------|--0-----------------------|
------------------------------|--4-----------------------|
--------------5----4----------|--------------------------|
------------------------------|-------4s--5s--4-----3----|
--2--2--2--2--3----2----2--2--|-------4s--5s--4--2--3----|
--0--0--0--0------------0--0--|-------2s--3s--2--0--1----|


  PM PM PM PM           PM PM PM PM                    PM       
  S  S  S  S  Q    Q    S  S  S  S     Q    E   E   E  E  Q     
------------------------------------|--------------------------|
------------------------------------|--------------------------|
--------------5----4----------------|--8-----------------------|
------------------------------------|-------4s--5s--4-----3----|
--2--2--2--2--3----2----2--2--2--2--|--6----4s--5s--4--2--3----|
--0--0--0--0------------0--0--0--0--|-------2s--3s--2--0--1----|

                               (2:23)
  PM PM PM PM           PM PM                                          
  S  S  S  S  Q    Q    E  E     W                   W                 
------------------------------|-------------------|-------------------|
------------------------------|-------------------|-------------------|
--------------5----4----------|-------------------|-------------------|
------------------------------|--3----------------|--L----------------|
--2--2--2--2--3----2----2--2--|--3----------------|--L----------------|
--0--0--0--0------------0--0--|--1----------------|--L----------------|

                     (2:26)                            (2:27)
  W                    E   E   E   E   E   E   E   E     Q    Q    E  E  Q     
-------------------|----------------------------------|-----------------------|
-------------------|--13--13--12--12------------------|-----------------------|
-------------------|------------------14--14--12--12--|-------5----5--5-------|
--L----------------|--10--10---9---9------------------|--2----5----5--5--2----|
--L----------------|------------------12--12--10--10--|--2----3----3--3--2----|
--L----------------|----------------------------------|--0---------------0----|


  E  E  E  E  E  E  E  E     E   E  Q    E  E  E  E     Q    E  E  E  E  Q     
--------------------------|--------------------------|------------------------|
--------------------------|--------------------------|------------------------|
--------------------------|--------------------------|------------------------|
--9--9--9--9--9--9--9--9--|--9s--5--5----5--5--5--5--|--7----7--7--7--7--5----|
--9--9--9--9--9--9--9--9--|--9s--5--5----5--5--5--5--|--7----7--7--7--7--5----|
--7--7--7--7--7--7--7--7--|--7s--3--3----3--3--3--3--|--5----5--5--5--5--3----|


  Q    Q    E  E  Q       E  E  E  E  E  E  E  E     E   E  Q    E  E  E  E   
-----------------------|--------------------------|--------------------------|
-----------------------|--------------------------|--------------------------|
-------5----5--5-------|--------------------------|--------------------------|
--2----5----5--5--2----|--9--9--9--9--9--9--9--9--|--9s--5--5----5--5--5--5--|
--2----3----3--3--2----|--9--9--9--9--9--9--9--9--|--9s--5--5----5--5--5--5--|
--0---------------0----|--7--7--7--7--7--7--7--7--|--7s--3--3----3--3--3--3--|

                          (2:38)
  Q    E  E  E  E  Q       Q    Q    E  E  Q       E  E  E  E  E  E  Q     
------------------------|-----------------------|-------------------------|
------------------------|--5----7----7--7--5----|--8--8--8--8--7--7--7----|
------------------------|-----------------------|-------------------------|
--7----7--7--7--7--5----|--2----4----4--4--2----|--5--5--5--5--4--4--4----|
--7----7--7--7--7--5----|-----------------------|-------------------------|
--5----5--5--5--5--3----|-----------------------|-------------------------|


  Q    Q    E  E  E  E     E  E  E  E  E   E  Q       Q    Q    E  E  Q     
-------7----7--7--7--7--|--L--7--7--7--7s--8--7----|-----------------------|
--5---------------------|--------------------------|--5----7----7--7--5----|
-------4----4--4--4--4--|--L--4--4--4--4s--5--4----|-----------------------|
--2---------------------|--------------------------|--2----4----4--4--2----|
------------------------|--------------------------|-----------------------|
------------------------|--------------------------|-----------------------|


  E  E  E  E  E  E  E  E     Q    Q    E  E  E  E     E  E  E  E  E   E  Q     
--------------------------|-------7----7--7--7--7--|--L--7--7--7--7s--8--7----|
--8--8--8--8--7--7--7--7--|--5---------------------|--------------------------|
--------------------------|-------4----4--4--4--4--|--L--4--4--4--4s--5--4----|
--5--5--5--5--4--4--4--4--|--2---------------------|--------------------------|
--------------------------|------------------------|--------------------------|
--------------------------|------------------------|--------------------------|

(2:48)
   Q.      Q.     Q       E   Q.     H           W                 
-----------------------|----------------------|-------------------|
--10s------8------7----|--Ls--8------7--------|-------------------|
-----------------------|----------------------|-------------------|
---7s------5------4----|--Ls--5------4--------|-------------------|
-----------------------|----------------------|-------------------|
-----------------------|----------------------|-------------------|

(2:52)
  W                   W                   W                   W                 
-------------------|-------------------|-------------------|-------------------|
-------------------|-------------------|-------------------|-------------------|
-------------------|-------------------|-------------------|-------------------|
-------------------|-------------------|-------------------|-------------------|
-------------------|-------------------|-------------------|-------------------|
-------------------|-------------------|-------------------|-------------------|


  W                   W                   W                   W                 
-------------------|-------------------|-------------------|-------------------|
-------------------|-------------------|-------------------|-------------------|
-------------------|-------------------|-------------------|-------------------|
-------------------|-------------------|-------------------|-------------------|
-------------------|-------------------|-------------------|-------------------|
-------------------|-------------------|-------------------|-------------------|


  W                   W                   W                 
-------------------|-------------------|-------------------|
-------------------|-------------------|-------------------|
-------------------|-------------------|-------------------|
-------------------|-------------------|-------------------|
-------------------|-------------------|-------------------|
-------------------|-------------------|-------------------|

(3:07))
  E  E  E  E  E  E  E  E     E  E  E  E  E  E  E  E     E  E  E  E  E  E  Q     
--------------------------|--------------------------|-------------------------|
--5--5--5--5--5--5--5-----|--5--5--5--5--5--5--5-----|--5--5--5--5--5--5--5----|
--------------------------|--------------------------|-------------------------|
--2--2--2--2--2--2--2-----|--2--2--2--2--2--2--2-----|--2--2--2--2--2--2--2----|
--------------------------|--------------------------|-------------------------|
--------------------------|--------------------------|-------------------------|

(3:12)                 (3:13)
   H         H           E  E  E  E  E  E  E  E     Q    Q    E  E  Q     
----------------------|--------------------------|-----------------------|
--13--------12--------|--5--5--5--5--5--5--5-----|-------5----5--5--4----|
----------------------|--------------------------|-----------------------|
--10---------9--------|--2--2--2--2--2--2--2-----|-------2----2--2--1----|
----------------------|--------------------------|-----------------------|
----------------------|--------------------------|-----------------------|


  E  E  E  E  E  E  E  E     Q    Q    E  E  Q       E  E  E  E  E  E  E  E   
--------------------------|-----------------------|--------------------------|
--5--5--5--5--5--5--5-----|-------5----5--5--4----|--8--8--8--8--8--8--8-----|
--------------------------|-----------------------|--------------------------|
--2--2--2--2--2--2--2-----|-------2----2--2--1----|--5--5--5--5--5--5--5-----|
--------------------------|-----------------------|--------------------------|
--------------------------|-----------------------|--------------------------|


  Q    Q    E  E  Q        E   E   E   E   E   E   E   E   
-----------------------|----------------------------------|
-------8----8--8--8----|--13--13--13--13--13--13--13--13--|
-----------------------|----------------------------------|
-------5----5--5--5----|--10--10--10--10--10--10--10--10--|
-----------------------|----------------------------------|
-----------------------|----------------------------------|


   E   E   E   E   E   E  Q       E  E  E  E  E  E  E  E   
-------------------------------|--------------------------|
--13--12--12--12--12--10--8----|--5--5--5--5--5--5--5-----|
-------------------------------|--------------------------|
--10---9---9---9---9---7--5----|--2--2--2--2--2--2--2-----|
-------------------------------|--------------------------|
-------------------------------|--------------------------|


  Q    Q    E  E  Q       E  E  E  E  E  E  E  E     Q    Q    E  E  Q     
-----------------------|--------------------------|-----------------------|
-------5----5--5--4----|--5--5--5--5--5--5--5-----|-------5----5--5--4----|
-----------------------|--------------------------|-----------------------|
-------2----2--2--1----|--2--2--2--2--2--2--2-----|-------2----2--2--1----|
-----------------------|--------------------------|-----------------------|
-----------------------|--------------------------|-----------------------|


  E  E  E  E  E  E  E  E     Q    Q    E  E  Q     
--------------------------|-----------------------|
--8--8--8--8--8--8--8-----|-------8----8--8--8----|
--------------------------|-----------------------|
--5--5--5--5--5--5--5-----|-------5----5--5--5----|
--------------------------|-----------------------|
--------------------------|-----------------------|


   E   E   E   E   E   E   E   E      E    Q     H         E   
----------------------------------|---------------------------|
--13--13--13--13--13--13--13--13--|--13s--15----15---------L--|
----------------------------------|---------------------------|
--10--10--10--10--10--10--10--10--|--10s--12----12---------L--|
----------------------------------|---------------------------|
----------------------------------|---------------------------|


  E  E  E  E  E  E  E  E     Q    Q    E  E  Q       E  E  E  E  E  E  E  E   
--------------------------|-----------------------|--------------------------|
--5--5--5--5--5--5--5-----|-------5----5--5--4----|--5--5--5--5--5--5--5-----|
--------------------------|-----------------------|--------------------------|
--2--2--2--2--2--2--2-----|-------2----2--2--1----|--2--2--2--2--2--2--2-----|
--------------------------|-----------------------|--------------------------|
--------------------------|-----------------------|--------------------------|


  Q    Q    E  E  Q       E  E  E  E  E  E  E  E     Q    Q    E  E  Q     
-----------------------|--------------------------|-----------------------|
-------5----5--5--4----|--8--8--8--8--8--8--8-----|-------8----8--8--8----|
-----------------------|--------------------------|-----------------------|
-------2----2--2--1----|--5--5--5--5--5--5--5-----|-------5----5--5--5----|
-----------------------|--------------------------|-----------------------|
-----------------------|--------------------------|-----------------------|


   E   E   E   E   E   E   E   E      E   E   E   E   E   E  Q     
----------------------------------|-------------------------------|
--13--13--13--13--13--13--13--13--|--13--12--12--12--12--10--8----|
----------------------------------|-------------------------------|
--10--10--10--10--10--10--10--10--|--10---9---9---9---9---7--5----|
----------------------------------|-------------------------------|
----------------------------------|-------------------------------|

(3:46)
  E   E   E   E    E   E   E   E      E   E   E   E    E   E   E    E   
--0--12p--0-----------------------|------19p--0------------------------|
-------------15p--13p--0--12p--0--|--17----------15h--17p--0--13h--15--|
----------------------------------|------------------------------------|
----------------------------------|------------------------------------|
----------------------------------|------------------------------------|
----------------------------------|------------------------------------|


  E   E    E   E   E   E   E   E     E   E   E  E   E   E   E  E   
--0--10h--12p--0------------------|-------------------------------|
------------------15p--0--13p--0--|----------------------------3--|
----------------------------------|-------------2h--3h--4h--5-----|
----------------------------------|--2h--3h--4--------------------|
----------------------------------|-------------------------------|
----------------------------------|-------------------------------|


  E   E  E  E   E   E   E   E      E   E   E   E    E   E   E    E   
--0--12--0--0------------------|------19p--0------------------------|
---------------15p--0--13p--0--|--17----------15h--17p--0--13h--15--|
-------------------------------|------------------------------------|
-------------------------------|------------------------------------|
-------------------------------|------------------------------------|
-------------------------------|------------------------------------|


  E   E  E  E   E  E  E  E      W                 
--0--12--0--0--10--0--8--0--|--14----------------|
----------------------------|--------------------|
----------------------------|--------------------|
----------------------------|--------------------|
----------------------------|--------------------|
----------------------------|--------------------|

(3:57)
  E   E   E   E    E   E   E   E      E   E   E   E    E   E   E    E   
--0--12p--0-----------------------|------19p--0------------------------|
-------------15p--13p--0--12p--0--|--17----------15h--17p--0--13h--15--|
----------------------------------|------------------------------------|
----------------------------------|------------------------------------|
----------------------------------|------------------------------------|
----------------------------------|------------------------------------|


  E   E    E   E   E   E   E   E     E   E   E  E   E   E   E  E   
--0--10h--12p--0------------------|-------------------------------|
------------------15p--0--13p--0--|----------------------------3--|
----------------------------------|-------------2h--3h--4h--5-----|
----------------------------------|--2h--3h--4--------------------|
----------------------------------|-------------------------------|
----------------------------------|-------------------------------|


  E   E  E  E   E   E   E   E      E   E   E   E    E   E   E    E   
--0--12--0--0------------------|------19p--0------------------------|
---------------15p--0--13p--0--|--17----------15h--17p--0--13h--15--|
-------------------------------|------------------------------------|
-------------------------------|------------------------------------|
-------------------------------|------------------------------------|
-------------------------------|------------------------------------|


  E   E  E  E   E  E  E  E      W                  
--0--12--0--0--10--0--8--0--|--14----------------||
----------------------------|--------------------||
----------------------------|--------------------||
----------------------------|--------------------||
----------------------------|--------------------||
----------------------------|--------------------||





Right Speaker Guitar (Ross Ott?)


 (0:00)
     H.           Q.        W                Q       H.           Q.      
D||----------------------|------------------------|----------------------|
A||----------------------|------------------------|----------------------|
F||----------------------|------------------------|----------------------|
C||----------------------|------------------------|----------------------|
G||----------------------|------------------------|----------------------|
D||----------------------|------------------------|----------------------|


  W                   W                   W                   W                 
-------------------|-------------------|-------------------|-------------------|
-------------------|-------------------|-------------------|-------------------|
-------------------|-------------------|-------------------|-------------------|
-------------------|-------------------|-------------------|-------------------|
-------------------|-------------------|-------------------|-------------------|
-------------------|-------------------|-------------------|-------------------|

                                                     (0:42)
                                                     (Let Ring)
  W                   H           W                   E  E  E  E  E  E  E  E   
-------------------|-----------|-------------------|--0-----0-----0-----0-----|
-------------------|-----------|-------------------|-----6-----6-----6-----6--|
-------------------|-----------|-------------------|--------------------------|
-------------------|-----------|-------------------|--------------------------|
-------------------|-----------|-------------------|--------------------------|
-------------------|-----------|-------------------|--------------------------|


  E  E  E  E  E  E  E  E     E  E  E  E  E  E  E  E   
--0-----0-----0-----0-----|-----------0-----------0--|
-----6-----6-----6-----6--|-----0-----------0--------|
--------------------------|--5-----5-----5-----5-----|
--------------------------|--------------------------|
--------------------------|--------------------------|
--------------------------|--------------------------|


  E  E  E  E  E  E  E  E     E  E  E  E  E  E  E  E   
-----------0-----------0--|--0-----0-----0-----0-----|
-----0-----------0--------|-----6-----6-----6-----6--|
--5-----5-----5-----5-----|--------------------------|
--------------------------|--------------------------|
--------------------------|--------------------------|
--------------------------|--------------------------|

                           (0:50)
  E  E  E  E  E  E  E  E     E  E  E  E  E  E  E  E   
--0-----0-----0-----0-----|-----8-----8-----8-----8--|
-----6-----6-----6-----6--|--8-----8-----8-----8-----|
--------------------------|--------------------------|
--------------------------|--------------------------|
--------------------------|--------------------------|
--------------------------|--------------------------|

                           (0:52)
  E  E  E  E  E  E  E  E      Q     Q    E  E  Q       E  E  E  E  E  E  E  E   
-----8-----8-----8-----8--|--(x)--------------------|--------------------------|
--8-----8-----8-----8-----|--(x)--------------------|--------------------------|
--------------------------|--(x)----5----5--5-------|--------------------------|
--------------------------|---2-----5----5--5--2----|--9--9--9--9--9--9--9--9--|
--------------------------|---2-----3----3--3--2----|--9--9--9--9--9--9--9--9--|
--------------------------|---0----------------0----|--7--7--7--7--7--7--7--7--|


  E   E  Q    E  E  E  E     Q    E  E  E  E  Q       Q    Q    E  E  Q     
--------------------------|------------------------|-----------------------|
--------------------------|------------------------|-----------------------|
--------------------------|--5----5--5--5--5-------|-------5----5--5-------|
--9s--5--5----5--5--5--5--|--x----x--x--x--x--5----|--2----5----5--5--2----|
--9s--5--5----5--5--5--5--|--3----3--3--3--3--5----|--2----3----3--3--2----|
--7s--3--3----3--3--3--3--|--5----5--5--5--5--3----|--0---------------0----|


  E  E  E  E  E  E  E  E     E   E  Q    E  E  E  E     Q    E  E  E  E  Q     
--------------------------|--------------------------|------------------------|
--------------------------|--------------------------|------------------------|
--------------------------|--------------------------|--5----5--5--5--5-------|
--9--9--9--9--9--9--9--9--|--9s--5--5----5--5--5--5--|--x----x--x--x--x--5----|
--9--9--9--9--9--9--9--9--|--9s--5--5----5--5--5--5--|--3----3--3--3--3--5----|
--7--7--7--7--7--7--7--7--|--7s--3--3----3--3--3--3--|--5----5--5--5--5--3----|


  Q    Q    E  E  Q       E  E  E  E  E  E  E  E     E   E  Q    E  E  E  E   
-----------------------|--------------------------|--------------------------|
-----------------------|--------------------------|--------------------------|
-------5----5--5-------|--------------------------|--------------------------|
--2----5----5--5--2----|--9--9--9--9--9--9--9--9--|--9s--5--5----5--5--5--5--|
--2----3----3--3--2----|--9--9--9--9--9--9--9--9--|--9s--5--5----5--5--5--5--|
--0---------------0----|--7--7--7--7--7--7--7--7--|--7s--3--3----3--3--3--3--|


  Q    E  E  E  E  Q       Q    Q    E  E  Q       E  E  E  E  E  E  E  E   
------------------------|-----------------------|--------------------------|
------------------------|-----------------------|--------------------------|
--5----5--5--5--5-------|-------5----5--5-------|--------------------------|
--x----x--x--x--x--5----|--2----5----5--5--2----|--9--9--9--9--9--9--9--9--|
--3----3--3--3--3--5----|--2----3----3--3--2----|--9--9--9--9--9--9--9--9--|
--5----5--5--5--5--3----|--0---------------0----|--7--7--7--7--7--7--7--7--|

                           (1:12)
  E   E  Q    E  E  E  E     W                   W                 
--------------------------|-------------------|-------------------|
--------------------------|-------------------|-------------------|
--------------------------|--5----------------|--L----------------|
--9s--5--5----5--5--5--5--|--x----------------|--L----------------|
--9s--5--5----5--5--5--5--|--3----------------|--L----------------|
--7s--3--3----3--3--3--3--|--5----------------|--L----------------|

(1:15)
  E  E  E  E  E  E  E  E     E  E  E  E  E  E  E  E   
--0-----0-----0-----0-----|--0-----0-----0-----0-----|
-----6-----6-----6-----6--|-----6-----6-----6-----6--|
--------------------------|--------------------------|
--------------------------|--------------------------|
--------------------------|--------------------------|
--------------------------|--------------------------|

                                               (It's just a rest. Make them stop ringing.)
  E  E  E  E  E  E  E  E     E  E  E  E  E  E   Q      
-----------0-----------0--|-----------0--------(x)----|
-----0-----------0--------|-----0-----------0--(x)----|
--5-----5-----5-----5-----|--5-----5-----8-----(x)----|
--------------------------|---------------------------|
--------------------------|---------------------------|
--------------------------|---------------------------|

(1:20)
  E  E  E  E  E  E  E  E     E  E  E  E  E  E  E  E   
--0-----0--0--0-----0--0--|--0-----0--0--0-----0-----|
-----6-----------6--------|-----6-----------6-----0--|
--------------------------|-----------------------5--|
--------------------------|--------------------------|
--------------------------|--------------------------|
--------------------------|--------------------------|


  E  E  E  E  E  E  E   E       E   E   E  Q    E  E  E   
-----------0--0--0--0---0---|---L---0---0--0----0--0-----|
-----0-----0--0--0--0--10---|---L--10--10--4----4--4--6--|
--5-----5--8--8--8--8--(x)--|----------------------------|
----------------------------|----------------------------|
----------------------------|----------------------------|
----------------------------|----------------------------|


  E  E  E  E  E  E  E  E     E  E  E  E  E  E  E  E   
--0-----0--0--0-----0--0--|--0-----0--0--0-----0-----|
-----6-----------6--------|-----6-----------6-----0--|
--------------------------|-----------------------5--|
--------------------------|--------------------------|
--------------------------|--------------------------|
--------------------------|--------------------------|


  E  E  E  E  E  E  E   E       E   E   E  Q    E  E  E   
-----------0--0--0--0---0---|---L---0---0--0----0--0-----|
-----0-----0--0--0--0--10---|---L--10--10--4----4--4--6--|
--5-----5--8--8--8--8-------|----------------------------|
----------------------------|----------------------------|
----------------------------|----------------------------|
----------------------------|----------------------------|


  E  E  E  E  E  E  E  E     E  E  E  E  E  E  E  E   
--0-----0--0--0-----0--0--|--0-----0--0--0-----0-----|
-----6-----------6--------|-----6-----------6-----0--|
--------------------------|-----------------------5--|
--------------------------|--------------------------|
--------------------------|--------------------------|
--------------------------|--------------------------|


  E  E  E  E  E  E  E   E       E   E   E  E  E   E   E  E   
-----------0--0--0--0---0---|---L---0---0--0--0---L---L--8--|
-----0-----0--0--0--0--10---|---L--10--10--7--7s--8s--7--8--|
--5-----5--8--8--8--8-------|-------------------------------|
----------------------------|-------------------------------|
----------------------------|-------------------------------|
----------------------------|-------------------------------|

(1:36)
  E  E  Q    E  E  Q       E  E  Q    E  E  E   E    
--L--8--8----8--8--8----|--8--8--8----8--8--8-------|
--L--8--8----8--8--8----|--8--8--8----8--8--8--10---|
------------------------|----------------------11---|
------------------------|---------------------------|
------------------------|---------------------------|
------------------------|---------------------------|


   E   E   E   E   E   E   E   E      W                  
----------------------------------|---------------------|
---L----------10--------------10--|--10-----------------|
---L------11------11------11------|---------------------|
----------------------------------|---------------------|
------12--------------12----------|---------------------|
----------------------------------|---------------------|

(1:42)
  E   E   E  E   E  E   E   E     E   E   E  E   E  E   E   E   
--0----------0--19--0----------|--0----------0--19--0----------|
-----18--17------------16--17--|-----18--17------------16--17--|
-------------------------------|-------------------------------|
-------------------------------|-------------------------------|
-------------------------------|-------------------------------|
-------------------------------|-------------------------------|


  E   E   E  E   E  E   E   E     E   E   E  E   E  E   E   E   
--0----------0--19--0----------|--0----------0--19--0----------|
-----18--17------------16--17--|-----18--17------------16--17--|
-------------------------------|-------------------------------|
-------------------------------|-------------------------------|
-------------------------------|-------------------------------|
-------------------------------|-------------------------------|


  E   E   E  E   E  E   E   E     E   E   E  E   E  E   E   E   
--0----------0--19--0----------|--0----------0--19--0----------|
-----18--17------------16--17--|-----18--17------------16--17--|
-------------------------------|-------------------------------|
-------------------------------|-------------------------------|
-------------------------------|-------------------------------|
-------------------------------|-------------------------------|


  E   E   E  E   E  E   E   E     E   E   E  E   E  E   E   E   
--0----------0--19--0----------|--0----------0--19--0----------|
-----18--17------------16--17--|-----18--17------------16--17--|
-------------------------------|-------------------------------|
-------------------------------|-------------------------------|
-------------------------------|-------------------------------|
-------------------------------|-------------------------------|

(1:52)
  E   E   E  E   E  E   E   E     E   E   E  E   E  E   E   E   
--0----------0--19--0----------|--0----------0--19--0----------|
-----18--17------------16--17--|-----18--17------------16--17--|
-------------------------------|-------------------------------|
-------------------------------|-------------------------------|
-------------------------------|-------------------------------|
-------------------------------|-------------------------------|


  E   E   E  E   E  E   E   E     E   E   E  E   E  E   E   E   
--0----------0--19--0----------|--0----------0--19--0----------|
-----18--17------------16--17--|-----18--17------------16--17--|
-------------------------------|-------------------------------|
-------------------------------|-------------------------------|
-------------------------------|-------------------------------|
-------------------------------|-------------------------------|


  E   E   E  E   E  E   E   E     E   E   E  E   E  E   E   E   
--0----------0--19--0----------|--0----------0--19--0----------|
-----18--17------------16--17--|-----18--17------------16--17--|
-------------------------------|-------------------------------|
-------------------------------|-------------------------------|
-------------------------------|-------------------------------|
-------------------------------|-------------------------------|


  E   E   E  E   E  E   E   E     E   E   E  E   E  E   E   E   
--0----------0--19--0----------|--0----------0--19--0----------|
-----18--17------------16--17--|-----18--17------------16--17--|
-------------------------------|-------------------------------|
-------------------------------|-------------------------------|
-------------------------------|-------------------------------|
-------------------------------|-------------------------------|

(2:03)
  PM PM PM PM           PM PM PM PM                    PM       
  S  S  S  S  Q    Q    S  S  S  S     Q    E   E   E  E  Q     
------------------------------------|--------------------------|
------------------------------------|--------------------------|
--------------5----4----------------|--8-----------------------|
------------------------------------|-------4s--5s--4-----3----|
--2--2--2--2--3----2----2--2--2--2--|--6----4s--5s--4--2--3----|
--0--0--0--0------------0--0--0--0--|-------2s--3s--2--0--1----|


  PM PM PM PM           PM PM                    PM       
  S  S  S  S  Q    Q    E  E     Q    E   E   E  E  Q     
------------------------------|--0-----------------------|
------------------------------|--4-----------------------|
--------------5----4----------|--------------------------|
------------------------------|-------4s--5s--4-----3----|
--2--2--2--2--3----2----2--2--|-------4s--5s--4--2--3----|
--0--0--0--0------------0--0--|-------2s--3s--2--0--1----|


  PM PM PM PM           PM PM PM PM                    PM       
  S  S  S  S  Q    Q    S  S  S  S     Q    E   E   E  E  Q     
------------------------------------|--------------------------|
------------------------------------|--------------------------|
--------------5----4----------------|--8-----------------------|
------------------------------------|-------4s--5s--4-----3----|
--2--2--2--2--3----2----2--2--2--2--|--6----4s--5s--4--2--3----|
--0--0--0--0------------0--0--0--0--|-------2s--3s--2--0--1----|


  PM PM PM PM           PM PM         PM PM PM PM       
  S  S  S  S  Q    Q    E  E     Q    E  E  E  E  Q     
------------------------------|--0----------------0----|
------------------------------|--4----------------4----|
--------------5----4----------|------------------------|
------------------------------|------------------------|
--2--2--2--2--3----2----2--2--|-------2--2--2--2-------|
--0--0--0--0------------0--0--|-------0--0--0--0-------|


  PM PM PM PM           PM PM PM PM                    PM       
  S  S  S  S  Q    Q    S  S  S  S     Q    E   E   E  E  Q     
------------------------------------|--------------------------|
------------------------------------|--------------------------|
--------------5----4----------------|--8-----------------------|
------------------------------------|-------4s--5s--4-----3----|
--2--2--2--2--3----2----2--2--2--2--|--6----4s--5s--4--2--3----|
--0--0--0--0------------0--0--0--0--|-------2s--3s--2--0--1----|


  PM PM PM PM           PM PM                    PM       
  S  S  S  S  Q    Q    E  E     Q    E   E   E  E  Q     
------------------------------|--0-----------------------|
------------------------------|--4-----------------------|
--------------5----4----------|--------------------------|
------------------------------|-------4s--5s--4-----3----|
--2--2--2--2--3----2----2--2--|-------4s--5s--4--2--3----|
--0--0--0--0------------0--0--|-------2s--3s--2--0--1----|


  PM PM PM PM           PM PM PM PM                    PM       
  S  S  S  S  Q    Q    S  S  S  S     Q    E   E   E  E  Q     
------------------------------------|--------------------------|
------------------------------------|--------------------------|
--------------5----4----------------|--8-----------------------|
------------------------------------|-------4s--5s--4-----3----|
--2--2--2--2--3----2----2--2--2--2--|--6----4s--5s--4--2--3----|
--0--0--0--0------------0--0--0--0--|-------2s--3s--2--0--1----|


                                (2:23)
  PM PM PM PM           PM PM                                          
  S  S  S  S  Q    Q    E  E     W                   W                 
------------------------------|--0----------------|--L----------------|
------------------------------|--4----------------|--L----------------|
--------------5----4----------|-------------------|-------------------|
------------------------------|-------------------|-------------------|
--2--2--2--2--3----2----2--2--|-------------------|-------------------|
--0--0--0--0------------0--0--|-------------------|-------------------|

                        [Pick Scrapes]         (2:28)
  W                    H.             Q         Q     Q    E  E  Q     
--0----------------|------------------------|--(x)--------------------|
--4----------------|------------------x/----|--(x)--------------------|
-------------------|---x\-------------x/----|--(x)----5----5--5-------|
-------------------|---x\-------------------|---2-----5----5--5--2----|
-------------------|------------------------|---2-----3----3--3--2----|
-------------------|------------------------|---0----------------0----|


  E  E  E  E  E  E  E  E     E   E  Q    E  E  E  E     Q    E  E  E  E  Q     
--------------------------|--------------------------|------------------------|
--------------------------|--------------------------|------------------------|
--------------------------|--------------------------|--5----5--5--5--5-------|
--9--9--9--9--9--9--9--9--|--9s--5--5----5--5--5--5--|--x----x--x--x--x--5----|
--9--9--9--9--9--9--9--9--|--9s--5--5----5--5--5--5--|--3----3--3--3--3--5----|
--7--7--7--7--7--7--7--7--|--7s--3--3----3--3--3--3--|--5----5--5--5--5--3----|


  Q    Q    E  E  Q       E  E  E  E  E  E  E  E     E   E  Q    E  E  E  E   
-----------------------|--------------------------|--------------------------|
-----------------------|--------------------------|--------------------------|
-------5----5--5-------|--------------------------|--------------------------|
--2----5----5--5--2----|--9--9--9--9--9--9--9--9--|--9s--5--5----5--5--5--5--|
--2----3----3--3--2----|--9--9--9--9--9--9--9--9--|--9s--5--5----5--5--5--5--|
--0---------------0----|--7--7--7--7--7--7--7--7--|--7s--3--3----3--3--3--3--|


  Q    E  E  E  E  Q        Q     Q    E  E  Q       E  E  E  E  E  E  E  E   
------------------------|--(x)--------------------|--------------------------|
------------------------|--(x)--------------------|--------------------------|
--5----5--5--5--5-------|--(x)----5----5--5-------|--------------------------|
--x----x--x--x--x--5----|---2-----5----5--5--2----|--9--9--9--9--9--9--9--9--|
--3----3--3--3--3--5----|---2-----3----3--3--2----|--9--9--9--9--9--9--9--9--|
--5----5--5--5--5--3----|---0----------------0----|--7--7--7--7--7--7--7--7--|


  E   E  Q    E  E  E  E     Q    E  E  E  E  Q       Q    Q    E  E  Q     
--------------------------|------------------------|-----------------------|
--------------------------|------------------------|-----------------------|
--------------------------|--5----5--5--5--5-------|-------5----5--5-------|
--9s--5--5----5--5--5--5--|--x----x--x--x--x--5----|--2----5----5--5--2----|
--9s--5--5----5--5--5--5--|--3----3--3--3--3--5----|--2----3----3--3--2----|
--7s--3--3----3--3--3--3--|--5----5--5--5--5--3----|--0---------------0----|


  E  E  E  E  E  E  E  E     E   E  Q    E  E  E  E     Q    E  E  E  E  Q     
--------------------------|--------------------------|------------------------|
--------------------------|--------------------------|------------------------|
--------------------------|--------------------------|--5----5--5--5--5--5----|
--9--9--9--9--9--9--9--9--|--9s--5--5----5--5--5--5--|--x----x--x--x--x--x----|
--9--9--9--9--9--9--9--9--|--9s--5--5----5--5--5--5--|--3----3--3--3--3--3----|
--7--7--7--7--7--7--7--7--|--7s--3--3----3--3--3--3--|--5----5--5--5--5--5----|


(2:49)                                  (2:51)
                                             PM PM PM PM PM PM PM  
  W                   W                   E  E  E  E  E  E  E  E   
-------------------|-------------------|--------------------------|
--1----------------|--L----------------|--------------------------|
--2----------------|--L----------------|--------------------------|
--2----------------|--L----------------|--------------------------|
--0----------------|--L----------------|--2--2--2--2--2--2--2--2--|
-------------------|-------------------|--0--0--0--0--0--0--0--0--|


  PM PM PM PM PM PM PM PM    PM PM PM PM PM PM PM PM  
  E  E  E  E  E  E  E  E     E  E  E  E  E  E  E  E   
--------------------------|--------------------------|
--------------------------|--------------------------|
--------------------------|--------------------------|
--------------------------|--------------------------|
--2--2--2--2--2--2--2--2--|--2--2--2--2--2--2--2--2--|
--0--0--0--0--0--0--0--0--|--0--0--0--0--0--0--0--0--|


  PM PM PM PM PM PM PM PM    PM PM PM PM PM PM PM PM  
  E  E  E  E  E  E  E  E     E  E  E  E  E  E  E  E   
--------------------------|--------------------------|
--------------------------|--------------------------|
--------------------------|--------------------------|
--------------------------|--------------------------|
--2--2--2--2--2--2--2--2--|--3--3--3--3--3--3--3--3--|
--0--0--0--0--0--0--0--0--|--5--5--5--5--5--5--5--5--|


  PM PM PM PM PM PM PM PM    PM PM PM PM PM PM PM PM  
  E  E  E  E  E  E  E  E     E  E  E  E  E  E  E  E   
--------------------------|--------------------------|
--------------------------|--------------------------|
--------------------------|--------------------------|
--------------------------|--------------------------|
--3--3--3--3--3--3--3--3--|--3--3--3--3--3--3--3--3--|
--5--5--5--5--5--5--5--5--|--3--3--3--3--3--3--3--3--|


  PM PM PM PM PM PM PM          PM PM PM PM PM PM PM  
  E  E  E  E  E  E  E  E     E  E  E  E  E  E  E  E   
--------------------------|--------------------------|
--------------------------|--------------------------|
--------------------------|--------------------------|
--------------------------|--------------------------|
--3--3--3--3--3--3--3--3--|--2--2--2--2--2--2--2--2--|
--2--2--2--2--2--2--2--2--|--0--0--0--0--0--0--0--0--|


  PM PM PM PM PM PM PM PM    PM PM PM PM PM PM PM PM  
  E  E  E  E  E  E  E  E     E  E  E  E  E  E  E  E   
--------------------------|--------------------------|
--------------------------|--------------------------|
--------------------------|--------------------------|
--------------------------|--------------------------|
--2--2--2--2--2--2--2--2--|--2--2--2--2--2--2--2--2--|
--0--0--0--0--0--0--0--0--|--0--0--0--0--0--0--0--0--|


  PM PM PM PM PM PM PM PM    PM PM PM PM PM PM PM PM  
  E  E  E  E  E  E  E  E     E  E  E  E  E  E  E  E   
--------------------------|--------------------------|
--------------------------|--------------------------|
--------------------------|--------------------------|
--------------------------|--------------------------|
--2--2--2--2--2--2--2--2--|--3--3--3--3--3--3--3--3--|
--0--0--0--0--0--0--0--0--|--5--5--5--5--5--5--5--5--|


                                                       (3:12)
  PM PM PM PM PM PM PM PM    PM PM PM PM PM PM PM PM                        
  E  E  E  E  E  E  E  E     E  E  E  E  E  E  E  E     H         H         
--------------------------|--------------------------|---------------------|
--------------------------|--------------------------|---------------------|
--------------------------|--------------------------|---------------------|
--------------------------|--------------------------|--2s--------4--------|
--3--3--3--3--3--3--3--3--|--3--3--3--3--3--3--3--3--|---------------------|
--5--5--5--5--5--5--5--5--|--3--3--3--3--3--3--3--3--|---------------------|


(3:13)
  E  E  E  E  E  E  E  E     Q    Q    E  E  E  E     E  E  E  E  E  E  E  E   
--------------------------|------------------------|--------------------------|
--------------------------|------------------------|--------------------------|
--------------------------|------------------------|--------------------------|
--2--2--2--2--2--2--2-----|-------2----2--2--2-----|--2--2--2--2--2--2--2-----|
--2--2--2--2--2--2--2-----|-------2----2--2--2-----|--2--2--2--2--2--2--2-----|
--0--0--0--0--0--0--0-----|-------0----0--0--0-----|--0--0--0--0--0--0--0-----|


  Q    Q    E  E  E  E     E  E  E  E  E  E  E  E     Q    Q    E  E  E  E   
------------------------|--------------------------|------------------------|
------------------------|--------------------------|------------------------|
------------------------|--5--5--5--5--5--5--5-----|-------5----5--5--5-----|
-------2----2--2--2-----|--7--7--7--7--7--7--7-----|-------7----7--7--7-----|
-------2----2--2--2-----|--7--7--7--7--7--7--7-----|-------7----7--7--7-----|
-------0----0--0--0-----|--5--5--5--5--5--5--5-----|-------5----5--5--5-----|


  E  E  E  E  E  E  E  E     E  Q.     E  Q.        E  E  E  E  E  E  E  E   
--------------------------|----------------------|--------------------------|
--------------------------|----------------------|--------------------------|
--------------------------|----------------------|--------------------------|
--5--5--5--5--5--5--5-----|-----4---------4------|--2--2--2--2--2--2--2-----|
--5--5--5--5--5--5--5-----|-----5---------5------|--2--2--2--2--2--2--2-----|
--3--3--3--3--3--3--3-----|-----2---------2------|--0--0--0--0--0--0--0-----|


  Q    Q    E  E  E  E     E  E  E  E  E  E  E  E     Q    Q    E  E  E  E   
------------------------|--------------------------|------------------------|
------------------------|--------------------------|------------------------|
------------------------|--------------------------|------------------------|
-------2----2--2--2-----|--2--2--2--2--2--2--2-----|-------2----2--2--2-----|
-------2----2--2--2-----|--2--2--2--2--2--2--2-----|-------2----2--2--2-----|
-------0----0--0--0-----|--0--0--0--0--0--0--0-----|-------0----0--0--0-----|


  E  E  E  E  E  E  E  E     Q    Q    E  E  E  E     E  E  E  E  E  E  E  E   
--------------------------|------------------------|--------------------------|
--------------------------|------------------------|--------------------------|
--5--5--5--5--5--5--5-----|-------5----5--5--5-----|--------------------------|
--7--7--7--7--7--7--7-----|-------7----7--7--7-----|--5--5--5--5--5--5--5-----|
--7--7--7--7--7--7--7-----|-------7----7--7--7-----|--5--5--5--5--5--5--5-----|
--5--5--5--5--5--5--5-----|-------5----5--5--5-----|--3--3--3--3--3--3--3-----|


  E  E  E  E  E  E  E  E     E  E  E  E  E  E  E  E     Q    Q    E  E  E  E   
--------------------------|--------------------------|------------------------|
--------------------------|--------------------------|------------------------|
--------------------------|--------------------------|------------------------|
--4--4--4--4--4--4--4-----|--2--2--2--2--2--2--2-----|-------2----2--2--2-----|
--5--5--5--5--5--5--5-----|--2--2--2--2--2--2--2-----|-------2----2--2--2-----|
--2--2--2--2--2--2--2-----|--0--0--0--0--0--0--0-----|-------0----0--0--0-----|


  E  E  E  E  E  E  E  E     Q    Q    E  E  E  E     E  E  E  E  E  E  E  E   
--------------------------|------------------------|--------------------------|
--------------------------|------------------------|--------------------------|
--------------------------|------------------------|--5--5--5--5--5--5--5-----|
--2--2--2--2--2--2--2-----|-------2----2--2--2-----|--7--7--7--7--7--7--7-----|
--2--2--2--2--2--2--2-----|-------2----2--2--2-----|--7--7--7--7--7--7--7-----|
--0--0--0--0--0--0--0-----|-------0----0--0--0-----|--5--5--5--5--5--5--5-----|


  Q    Q    E  E  E  E     E  E  E  E  E  E  E  E     E  Q.     E  Q.      
------------------------|--------------------------|----------------------|
------------------------|--------------------------|----------------------|
-------5----5--5--5-----|--------------------------|----------------------|
-------7----7--7--7-----|--5--5--5--5--5--5--5-----|-----4---------4------|
-------7----7--7--7-----|--5--5--5--5--5--5--5-----|-----5---------5------|
-------5----5--5--5-----|--3--3--3--3--3--3--3-----|-----2---------2------|

(3:46)  [It's dead notes obviously. Engage your Wah-Wah pedal and do some tone swells)
  E  E  E  E  E  E  E  E     Q    Q    E  E  E  E     E  E  E  E  E  E  E  E   
--------------------------|------------------------|--------------------------|
--------------------------|------------------------|--------------------------|
--x--x--x--x--x--x--x-----|-------x----x--x--x-----|--x--x--x--x--x--x--x-----|
--x--x--x--x--x--x--x-----|-------x----x--x--x-----|--x--x--x--x--x--x--x-----|
--------------------------|------------------------|--------------------------|
--------------------------|------------------------|--------------------------|


  Q    Q    E  E  E  E     E  E  E  E  E  E  E  E     E  E  E  E  E  E  E  E   
------------------------|--------------------------|--------------------------|
------------------------|--------------------------|--------------------------|
-------x----x--x--x-----|--x--x--x--x--x--x--x--x--|--x--x--x--x--x--x--x--x--|
-------x----x--x--x-----|--x--x--x--x--x--x--x--x--|--x--x--x--x--x--x--x--x--|
------------------------|--------------------------|--------------------------|
------------------------|--------------------------|--------------------------|


  E  E  E  E  E  E  E  E     E  E  E  E  E  E  E  E   
--------------------------|--------------------------|
--------------------------|--------------------------|
--x--x--x--x--x--x--x--x--|--x--x--x--x--x--x--x--x--|
--x--x--x--x--x--x--x--x--|--x--x--x--x--x--x--x--x--|
--------------------------|--------------------------|
--------------------------|--------------------------|


  E  E  E  E  E  E  E  E     Q    Q    E  E  E  E     E  E  E  E  E  E  E  E   
--------------------------|-------





Comments


Popular Bled tabs & chords
Get Up You Son Of A Bitch, Cause Mickey Loves Ya Bass Tabs
His First Crush Bass Tabs
I Never Met Another Gemini Bass Tabs
Smoke Breaks 2 Bass Tabs
We Are The Industry Bass Tabs
Ok But This Is How It Really Happened Tabs
Porcelain Hearts And Hammers For Teeth Intro 1 Tabs
Ruth Buzzi Better Watch Her Back Tabs
Smoke Breaks Tabs
Sound Of Sulfur Tabs


Song lyrics



↑ Back to top | Tablatures and chords are parodies/interpretations of the original songs. You may use it for private study, scholarship, research or language learning purposes only
© 2014 AZChords.com Contact us | Privacy policy | DMCA | Add/correct tabs | Request tabs | Top 50 tabs