» » »

His First Crush Bass tabs (ver.1)

Artists:  A B C D E F G H I J K L M N O P Q R S T U V W X Y Z # 

His First Crush Bass tabs (ver.1)

Bled
Rating:
0/5 (0 votes)

Hard to play? Try these video lessons and learn fast.
                
HIS FIRST CRUSH (Bassline)
As recorded by The Bled
(From the 2001 Album HIS FIRST CRUSH)

	

Words and Music by The Bled
Arranged by The Bled

Gtr I (E A D G) - 'Bass'

 Intro
  Dancefight Q=159
 4/4
  Gtr I
  W          W          +W           E E E E H
|----------|----------|------------|--------------|
|----------|----------|------------|--------------|
|----------|----------|------------|--------------|
|----------|-0--------|-(0)--------|-0-0---0------|


  W          W          +H..       E   W
|----------|----------|--------------|------|
|----------|----------|--------------|------|
|----------|-3--------|-(3)----------|-0----|
|----------|----------|--------------|------|


  +H..       E   E E E E E E E E   E E E E E E E E
|--------------|-----------------|-----------------|
|--------------|-----------------|-----------------|
|-(0)----------|-----------------|-----------------|
|--------------|-0-0-0-0-0-0-0-0-|-0-0-0-0-0-0-0-0-|


  E E E E E E E E   E E E E E E  Q
|-----------------|------------------||
|-----------------|------------------||
|-----------------|------------------||
|-3-3-3-2-2-2-0-0-|-0-0-0-0-0-0-12\--||


 "I'll open up my wrists to.."
                                     3/4         4/4
  E S S S S q  E E E   Q  Q  E E Q    +Q   H      Q  E E E E E E
|--------------------|--------------|-----------|----------------|
|--------------------|--------------|-----------|----------------|
|-7------------------|-------2---4--|-(4)-------|-7--------------|
|---0-0-0-0-0--0-0-0-|-5--4----0----|------3----|----0-0-0-0-0-0-|


                                                 3/4
  W          E S S S S e E E E E   Q  Q  E E Q    +Q   H
|----------|---------------------|--------------|-----------|
|----------|---------------------|--------------|-----------|
|----------|-7-------------------|-------2---4--|-(4)-------|
|----------|---0-0-0-0-0---0-0-0-|-5--4----0----|------3----|


 4/4
  W          +W           W          W
|----------|------------|----------|------||
|----------|------------|----------|------||
|-0--------|-(0)--------|-2--------|-3----||
|----------|------------|----------|------||


 "Nail my hands into the.."
  Get stabby Q=172
                                3/4
  q  q  E q  E   E q  E E E Q    q  E E Q
|--------------|---------------|-----------|
|--------------|---------------|-----------|
|-------3------|---3-----------|-----------|
|-0--3----3--0-|------4-3-1-3--|-0--3-2-1--|


 4/4                            3/4
  q  q  E q  E   E q  E E E Q    q  E E Q
|--------------|---------------|-----------|
|--------------|---------------|-----------|
|--------------|---3-----------|-----------|
|-0--3--1-3--0-|------4-3-1-3--|-0--3-2-1--|


 6/4
  E E Q  W          E E Q  E E Q  E E Q    W        E E Q    E E Q  W
|-----------------|----------------------|-----------------|-------------|
|-----------------|----------------------|-----------------|-------------|
|-----1-----------|-----1-------------1--|--------------1--|-------------|
|-0-0-------------|-0-0----0-0-1--0-0----|----------0-0----|-0-0-1--0----|


 4/4                                                    3/4
  S S S S S S S S q  q    q  q  E q  E   E q  E E E Q    q  E E Q
|-----------------------|--------------|---------------|-----------|
|-----------------------|--------------|---------------|-----------|
|-----------------------|-------3------|---3-----------|-----------|
|-0-0-0-0-0-0-0-0-0--0--|-0--3----3--0-|------4-3-1-3--|-0--3-2-1--|


 2/4
  q  q    E q  E   E q  E   E E Q
|-------|--------|--------|--------||
|-------|--------|--------|--------||
|-------|--------|---3----|--------||
|-0--3--|-1-3--0-|------4-|-3-1-3--||


 Interlude
 4/4                                5/4                    4/4
  E E S S E Q  E E   E E Q  E E Q    E E S S E Q  E E E E   E E S S E Q  E E
|------------------|---------------|----------------------|------------------|
|------------------|---------------|----------------------|------------------|
|------------------|-----2---------|----------------------|------------------|
|-0-0-0-0-0----1s0-|-0-0----0-0-1--|-0-0-0-0-0----1s0-0s1-|-0-0-0-0-0----1s0-|


                                     H=H
  E E Q  E E Q    E E S S E Q  E E   E E E E E Q.
|---------------|------------------|-----------------||
|---------------|------------------|-----------------||
|-----2---------|------------------|-2-2-2-2-2-------||
|-0-0----0-0-1--|-0-0-0-0-0----1s0-|-----------------||


 Breakdown
  Dance, suckah! Q=185
  Q.   E E Q.     E E E E E E E E   Q.   E E Q.     E E E E E E E E
|---------------|-----------------|---------------|-----------------|
|---------------|-----------------|---------------|-----------------|
|---------------|-----------------|---------------|-----------------|
|------0-1------|---0-1---1S2-0-0-|------0-1------|---0-1---1S2-0-0-|


  Q.   E E Q.     E E E E E E E E   Q.   E E E E E   E E E E E E E E
|---------------|-----------------|----------------|-----------------||
|---------------|-----------------|----------------|-----------------||
|---------------|-----------------|------------2-2-|-2-2-2-2-2-2-2-2-||
|------0-1------|---0-1---1S2-0-0-|------0-1-------|-----------------||


   "No matter what always.."
    H.      Q    +H     H      H.      Q    +H     H
||-------------|-------------|------------|--------------||
||o------------|-------------|------------|-------------o||
||o------------|-------------|------------|-------------o||
||--0-------3--|-(3)----1----|-0-------3--|-(3)----1-----||


    H    E E Q    +H     H      H    E E Q    +H     H
||--------------|-------------|-------------|--------------||
||o-------------|-------------|-------------|-------------o||
||o-------------|-------------|-------------|-------------o||
||--0----0-0-3--|-(3)----1----|-0----0-0-3--|-(3)----1-----||


 "Reopen the wounds.."
  Kill the scene Q=130
  >
  W          +W           +W           +W
|----------|------------|------------|--------|
|----------|------------|------------|--------|
|----------|------------|------------|--------|
|-0--------|-(0)--------|-(0)--------|-(0)----|


  +W           +W           +W           +W
|------------|------------|------------|--------|
|------------|------------|------------|--------|
|------------|------------|------------|--------|
|-(0)--------|-(0)--------|-(0)--------|-(0)----|


  W          W          W          H.       q
|----------|----------|----------|--------------||
|----------|----------|----------|--------------||
|----------|----------|----------|---------(7)--||
|-0--------|-0--------|-0--------|-0--------0---||


   "Pull up the floorboards.."
    Return the crush Q=155
    E E E E E E E E   E E E E E E E E
||------------------|-----------------|
||o-----------------|-----------------|
||o-3-3-3-3-3-3-3-3-|-3-3-3-3-3-3-3-3-|
||------------------|-----------------|


  S S S E. E S S E q    S S S E. E S S E q    4x
|---------------------|-----------------------||
|---------------------|----------------------o||
|---------------------|----------------------o||
|-0-0-0-0--0-0-0---0--|-0-0-0-0--0-0-0---0----||


  S S S E. E S S E q    S S S E. E S S E q
|---------------------|---------------------|
|---------------------|---------------------|
|---------------------|---------------------|
|-0-0-0-0--0-0-0---0--|-0-0-0-0--0-0-0---0--|


  S S S E. E S S E q    S S S E. E S S E q
|---------------------|----------------------|
|---------------------|----------------------|
|---------------------|----------------------|
|-3-3-3-3--3-3-3---3--|-3-3-3-3--3-3-3---3---|


 2/4
  H      +H       +H       +H
|------|--------|--------|--------||
|------|--------|--------|--------||
|------|--------|--------|--------||
|-2----|-(2)----|-(2)----|-(2)----||


   Breakdown
   4/4
    S S S E S E S S E q    E S S E Q  q  E
||-----------------------|-----------------|
||o----------------------|-----------------|
||o----------------------|-----------------|
||--0-0-0-0---0-0-0---0--|---0-0-0----0----|


  S S S E S E S S E q    E E E E E E E E
|----------------------|------------------||
|----------------------|-----------------o||
|----------------------|-----------------o||
|-0-0-0-0---0-0-0---0--|-0-0-0-0-3-2-2-1--||


    S S S E S E S S E S S E   S S S E S E E E E E
||--------------------------|---------------------|
||o-------------------------|---------------------|
||o-----------------3-----3-|---------------------|
||--0-0-0-0---0-0-0---0-0---|-0-0-0-0---0-3-2-2-1-|


  S S S E S E S S E S S E   S S S E S E E E E E
|-------------------------|-------------------------||
|-------------------------|------------------------o||
|-----------------3-----3-|------------------------o||
|-0-0-0-0---0-0-0---0-0---|-0-0-0-0---0-3-2-2-1-----||


 Outro
  W          S S S S S S S S  q    q     W          W
|----------|---------------------------|----------|------*|
|----------|---------------------------|----------|------*|
|-7--------|-----------------(7)--(7)--|----------|------*|
|----------|-0-0-0-0-0-0-0-0--0----0---|----------|------*|



Duration Legend
---------------
W - whole; H - half; Q - quarter; E - 8th; S - 16th; T - 32nd; X - 64th; a - acciaccatura
+ - note tied to previous; . - note dotted; .. - note double dotted
Uncapitalized letters represent notes that are staccato (1/2 duration)
Irregular groupings are notated above the duration line
Duration letters will always appear directly above the note/fret number it represents the
duration for.  Duration letters with no fret number below them represent rests.  Multi-
bar rests are notated in the form Wxn, where n is the number of bars to rest for.  Low
melody durations appear below the staff

Tablature Legend
----------------
 h   - hammer-on
 p   - pull-off
 b   - bend
 pb  - pre-bend
 r   - bend release (if no number after the r, then release immediately)
 /\  - slide into or out of (from/to "nowhere")
 s   - legato slide
 S   - shift slide
 - natural harmonic
[n]  - artificial harmonic
n(n) - tapped harmonic
 ~   - vibrato
 tr  - trill
 T   - tap
 TP  - trem. picking
 PM  - palm muting
\n/  - tremolo bar dip; n = amount to dip
 \n  - tremolo bar down
 n/  - tremolo bar up
/n\  - tremolo bar inverted dip
 =   - hold bend; also acts as connecting device for hammers/pulls
 <> - volume swell (louder/softer)
 x   - on rhythm slash represents muted slash
 o   - on rhythm slash represents single note slash

Misc Legend
-----------
 |  - bar
||  - double bar
||o - repeat start
o|| - repeat end
*|  - double bar (ending)
 :  - bar (freetime)
 $  - Segno
 &  - Coda
Tempo markers -  = BPM(8/16=s8/s16), where s8 = swing 8ths, s16 = swing 16ths
            
Hard to play? Try these video lessons and learn fast. | Correct




comments powered by Disqus
↑ Back to top | Tablatures and chords are parodies/interpretations of the original songs. You may use it for private study, scholarship, research or language learning purposes only