>
 >
His First Crush

His First Crush Guitar Tabs

Bled - His First Crush chords, tabs, tablatures, lyrics

Guitar lessons | Add/correct | Request | Top 50 tabs Artists:  A B C D E F G H I J K L M N O P Q R S T U V W X Y Z 0-9

His First Crush Guitar Tabs – Bled

CD, Sheet music, Poster

Do you like His First Crush? Share with your friends now
Bass TabsTabs
#------------------------------------------------------------------------------##

                                 HIS FIRST CRUSH
                             As recorded by The Bled
                      (From the 2001 Album HIS FIRST CRUSH)

Words and Music by The Bled
Arranged by The Bled

Gtr I (E A D G B E) - 'Dist. Left'
Gtr II (E A D G B E) - 'Dist. Right'
Gtr III (E A D G B E) - 'Clean I'
Gtr IV (E A D G B E) - 'Clean II'
Gtr V (E A D G B E) - 'Pickscrape'

 Intro
  Dancefight Q=159
  N.C.              E5
 4/4
  Gtr I
  E E E E E E E E   E E E E E E E E    E  E E E E E E E   E E E E E E E E
|-----------------|-----------------|-------------------|------------------|
|-----------------|-----------------|-------------------|------------------|
|-4-4-4-5-4-4-4-5-|-4-4-4-5-4-4-4-5-|--4--4-4-5-4-4-4-5-|-4-4-4-5-4-4-4-5--|
|-x-x-x-x-x-x-x-x-|-x-x-x-x-x-x-x-x-|--x--x-x-x-x-x-x-x-|-x-x-x-x-x-x-x-x--|
|-2-2-2-3-2-2-2-3-|-2-2-2-3-2-2-2-3-|--2--2-2-3-2-2-2-3-|-2-2-2-3-2-2-2-3--|
|-----------------|-----------------|-------------------|------------------|
|
| Gtr II
|                                                         PM----|
| W                 W                 +W                  E E E E H
|-----------------|-----------------|-------------------|------------------|
|-----------------|-----------------|-------------------|------------------|
|-----------------|-----------------|-------------------|------------------|
|-----------------|-2---------------|-(2)---------------|------------------|
|-----------------|-2---------------|-(2)---------------|-2-2---2----------|
|-----------------|-0---------------|-(0)---------------|-0-0---0----------|


  N.C.              C5                                     A5
  E E E E E E E E   E E E E E E E E    E   E E E E E E E   E E E E E E E E
|-----------------|-----------------|--------------------|-----------------|
|-----------------|-----------------|--------------------|-----------------|
|-4-4-4-5-4-4-4-5-|-4-4-4-5-4-4-4-5-|--4---4-4-5-4-4-4-5-|-4-4-4-5-4-4-4-5-|
|-x-x-x-x-x-x-x-x-|-x-x-x-x-x-x-x-x-|--x---x-x-x-x-x-x-x-|-x-x-x-x-x-x-x-x-|
|-2-2-2-3-2-2-2-3-|-2-2-2-3-2-2-2-3-|--2---2-2-3-2-2-2-3-|-2-2-2-3-2-2-2-3-|
|-----------------|-----------------|--------------------|-----------------|
|
| W                 W                 +H..             E   W
|-----------------|-----------------|--------------------|-----------------|
|-----------------|-----------------|--------------------|-----------------|
|-----------------|-5---------------|-(5)----------------|-2---------------|
|-----------------|-5---------------|-(5)----------------|-2---------------|
|-----------------|-3---------------|-(3)----------------|-0---------------|
|-----------------|-----------------|--------------------|-----------------|


  A5                   E5
   E   E E E E E E E   E E E E E E E E
|--------------------|-----------------|
|--------------------|-----------------|
|--4---4-4-5-4-4-4-5-|-4-4-4-5-4-4-4-5-|
|--x---x-x-x-x-x-x-x-|-x-x-x-x-x-x-x-x-|
|--2---2-2-3-2-2-2-3-|-2-2-2-3-2-2-2-3-|
|--------------------|-----------------|
|
|                        PM-------------
| +H..             E   E E E E E E E E
|--------------------|-----------------|
|--------------------|-----------------|
|-(2)----------------|-----------------|
|-(2)----------------|-2---------------|
|-(0)----------------|-2-2-2-2-2-2-2-2-|
|--------------------|-0-0-0-0-0-0-0-0-|


                    G5    F#5   E5
  E E E E E E E E   E E E E E E E E    E  E E E E E E E
|-----------------|-----------------|-------------------||
|-----------------|-----------------|-------------------||
|-4-4-4-5-4-4-4-5-|-4-4-4-5-4-4-4-5-|--4--4-4-5-4-4-4-5-||
|-x-x-x-x-x-x-x-x-|-x-x-x-x-x-x-x-x-|--x--x-x-x-x-x-x-x-||
|-2-2-2-3-2-2-2-3-|-2-2-2-3-2-2-2-3-|--2--2-2-3-2-2-2-3-||
|-----------------|-----------------|-------------------||
|
|---------------|     PM|   PM|
| E E E E E E E E   E E E E E E Q     +W
|-----------------|-----------------|-------------------||
|-----------------|-----------------|-------------------||
|-----------------|-----------------|-------------------||
|-----------------|-5-----4-----2---|-(2)---------------||
|-2-2-2-2-2-2-2-2-|-5-5-5-4-4-4-2---|-(2)---------------||
|-0-0-0-0-0-0-0-0-|-3-3-3-2-2-2-0---|-(0)---------------||


 "I'll open up my wrists to.."
  E5                   A5 G#5B5E5C#5       G5     E5
                                     3/4         4/4
    PM----|    PM--|                                 PM--------|
  E S S S S q  E E E   Q  Q  E E Q    +Q   H      Q  E E E E E E
|--------------------|--------------|-----------|----------------|
|--------------------|--------------|-----------|----------------|
|--------------------|-------4---6--|-(6)-------|----------------|
|-9---------9--------|-7--6--4-2-6--|-(6)--5----|-9--------------|
|-7-7-7-7-7-7--7-7-7-|-7--6--2-2-4--|-(4)--5----|-7--7-7-7-7-7-7-|
|-0-0-0-0-0-0--0-0-0-|-5--4----0----|------3----|-0--0-0-0-0-0-0-|
|
|   PM----|    PM--|                                 PM--------|
| E S S S S q  E E E   Q  Q  E E Q    +Q   H      Q  E E E E E E
|--------------------|--------------|-----------|----------------|
|--------------------|--------------|-----------|----------------|
|--------------------|-------4---6--|-(6)-------|----------------|
|-2---------2--------|-7--6--4-2-6--|-(6)--5----|-2--------------|
|-2-2-2-2-2-2--2-2-2-|-7--6--2-2-4--|-(4)--5----|-2--2-2-2-2-2-2-|
|-0-0-0-0-0-0--0-0-0-|-5--4----0----|------3----|-0--0-0-0-0-0-0-|


  N.C.              E5                    A5 G#5B5E5C#5       G5
                                                        3/4
                      PM------|   PM--|
  E E E E E E E E   E S S S S e E E E E   Q  Q  E E Q    +Q   H
|-----------------|---------------------|--------------|-----------|
|-----------------|---------------------|--------------|-----------|
|-4-4-4-5-4-4-4-5-|---------------------|-------4---6--|-(6)-------|
|-x-x-x-x-x-x-x-x-|-9-------------------|-7--6--4-2-6--|-(6)--5----|
|-2-2-2-3-2-2-2-3-|-7-7-7-7-7-7---7-7-7-|-7--6--2-2-4--|-(4)--5----|
|-----------------|-0-0-0-0-0-0---0-0-0-|-5--4----0----|------3----|
|
|                     PM------|   PM--|
| E E E E E E E E   E S S S S e E E E E   Q  Q  E E Q    +Q   H
|-----------------|---------------------|--------------|-----------|
|-----------------|---------------------|--------------|-----------|
|-4-4-4-5-4-4-4-5-|---------------------|-------4---6--|-(6)-------|
|-x-x-x-x-x-x-x-x-|-2-------------------|-7--6--4-2-6--|-(6)--5----|
|-2-2-2-3-2-2-2-3-|-2-2-2-2-2-2---2-2-2-|-7--6--2-2-4--|-(4)--5----|
|-----------------|-0-0-0-0-0-0---0-0-0-|-5--4----0----|------3----|


  A5                                    B5                C5
 4/4
  E E E E E E E E    E  E E E E E E E   E E E E E E E E    E E E E E E E E
|-----------------|-------------------|-----------------|--------------------||
|-----------------|-------------------|-----------------|--------------------||
|-4-4-4-5-4-4-4-5-|--4--4-4-5-4-4-4-5-|-4-4-4-5-4-4-4-5-|--4-4-4-5-4-4-4-5---||
|-x-x-x-x-x-x-x-x-|--x--x-x-x-x-x-x-x-|-x-x-x-x-x-x-x-x-|--x-x-x-x-x-x-x-x---||
|-2-2-2-3-2-2-2-3-|--2--2-2-3-2-2-2-3-|-2-2-2-3-2-2-2-3-|--2-2-2-3-2-2-2-3---||
|-----------------|-------------------|-----------------|--------------------||
|
|                                                                  Gtr V
|                                                                  TPTPTPTP
| W                 +W                  W                  H       E E E E
|-----------------|-------------------|-----------------|--------------------||
|-----------------|-------------------|-----------------|--------------------||
|-----------------|-------------------|-----------------|--------------------||
|-7---------------|-(7)---------------|-9---------------|-10-----------------||
|-7---------------|-(7)---------------|-9---------------|-10-------xSxSxSx\--||
|-5---------------|-(5)---------------|-7---------------|--8-------xSxSxSx\--||


 "Nail my hands into the.."
  Get stabby Q=172
  E5 G5 C5G5 E5    C5 G#G5F5G5   E5 G5F#F5
                                3/4
  Gtrs I, II
  q  q  E q  E   E q  E E E Q    q  E E Q
|--------------|---------------|-----------|
|--------------|---------------|-----------|
|--------------|---------------|-----------|
|-------5------|---5-----------|-----------|
|-2--5--3-5--2-|---3--6-5-3-5--|-2--5-4-3--|
|-0--3----3--0-|------4-3-1-3--|-0--3-2-1--|


  E5 G5 F5G5 E5    C5 G#G5F5G5   E5 G5F#F5
 4/4                            3/4
  q  q  E q  E   E q  E E E Q    q  E E Q
|--------------|---------------|-----------|
|--------------|---------------|-----------|
|--------------|---------------|-----------|
|--------------|---5-----------|-----------|
|-2--5--3-5--2-|---3--6-5-3-5--|-2--5-4-3--|
|-0--3--1-3--0-|------4-3-1-3--|-0--3-2-1--|


  E5  Bb5N.C.              E5  Bb5E5  F5 E5  Bb5
 6/4
  PM|                      PM|    PM|    PM|
  E E Q  E E E E E E E E   E E Q  E E Q  E E Q
|------------------------|----------------------|
|------------------------|----------------------|
|-----3------------------|-----3-------------3--|
|-----3----------4p3-----|-----3------3------3--|
|-2-2-1------3p2-----3p2-|-2-2-1--2-2-3--2-2-1--|
|-0-0----0h1-------------|-0-0----0-0-1--0-0----|


  N.C.            E5  Bb5  E5  Bb5E5
                  PM|      PM|
  E E E E E E E E E E Q    E E Q  W
|------------------------|-------------|
|------------------------|-------------|
|---------------------3--|-------------|
|---------4p3---------3--|-----3--2----|
|-----3p2-----3p2-2-2-1--|-2-2-3--2----|
|-0h1-------------0-0----|-0-0-1--0----|


  E5                         G5 C5G5 E5    C5 G#G5F5G5   E5 G5F#F5
 4/4                                                    3/4
  PM-----------------|
  S S S S S S S S q  q    q  q  E q  E   E q  E E E Q    q  E E Q
|-----------------------|--------------|---------------|-----------|
|-----------------------|--------------|---------------|-----------|
|-----------------------|--------------|---------------|-----------|
|-----------------------|-------5------|---5-----------|-----------|
|-2-2-2-2-2-2-2-2-2--2--|-2--5--3-5--2-|---3--6-5-3-5--|-2--5-4-3--|
|-0-0-0-0-0-0-0-0-0--0--|-0--3----3--0-|------4-3-1-3--|-0--3-2-1--|


  E5 G5   F5G5 E5    C5 G#5 G5F5G5
 2/4
  q  q    E q  E   E q  E   E E Q
|-------|--------|--------|--------||
|-------|--------|--------|--------||
|-------|--------|--------|--------||
|-------|--------|---5----|--------||
|-2--5--|-3-5--2-|---3--6-|-5-3-5--||
|-0--3--|-1-3--0-|------4-|-3-1-3--||


 Interlude
  E5        N.E.F5E5      Bb5E5  F5
 4/4
  PM------|           PM|    PM|
  E E S S E E E E E   E E Q  E E Q
|-----------0-0-----|---------------|
|-----------6s5-----|---------------|
|-------------------|-----4---------|
|-------------------|-----3------3--|
|-2-2-2-2-2-----3s2-|-2-2-2--2-2-3--|
|-0-0-0-0-0-----1s0-|-0-0----0-0-1--|


  E5        N.E.F5E5EbFb5 E5        N.E.F5E5
 5/4                     4/4
  PM------|               PM------|
  E E S S E E E E E E E   E E S S E E E E E
|-----------0-0---------|-----------0-0-----|
|-----------6s5---------|-----------6s5-----|
|-----------------------|-------------------|
|-----------------------|-------------------|
|-2-2-2-2-2-----3s2-1s2-|-2-2-2-2-2-----3s2-|
|-0-0-0-0-0-----1s0-0s1-|-0-0-0-0-0-----1s0-|


                                      H=H
  E5  Bb5E5  F5   E5        N.E.F5E5  Bb5
  PM|    PM|      PM------|
  E E Q  E E Q    E E S S E E E E E   E E E E E Q.
|---------------|-----------0-0-----|-----------------||
|---------------|-----------6s5-----|-----------------||
|-----4---------|-------------------|-4-4-4-4-4-------||
|-----3------3--|-------------------|-3-3-3-3-3-------||
|-2-2-2--2-2-3--|-2-2-2-2-2-----3s2-|-2-2-2-2-2-------||
|-0-0----0-0-1--|-0-0-0-0-0-----1s0-|-----------------||


 Breakdown
  Dance, suckah! Q=185
  N.E.  EbFb5 N.E.    EbFb5   F#N.C.  N.E.  EbFb5 N.E.    EbFb5   F#N.C.
  Gtr I
  E E E E E E E E   E E E E E E E E   E E E E E E E E   E E E E E E E E
|---------8-7-----|---------8-7---7-|---------8-7-----|---------8-7---7-|
|---6---6-------6-|---6---6-----6---|---6---6-------6-|---6---6-----6---|
|-9---9-------9---|-9---9-----------|-9---9-------9---|-9---9-----------|
|-----------------|-----------------|-----------------|-----------------|
|-----------------|-----------------|-----------------|-----------------|
|-----------------|-----------------|-----------------|-----------------|
|
| Gtr II
|                               PM|                                 PM|
| E E E E E E E E   E E E E E E E E   E E E E E E E E   E E E E E E E E
|-0-0---------0-0-|-----------------|-0-0---------0-0-|-----------------|
|-6s5---------6s5-|-----------------|-6s5---------6s5-|-----------------|
|-----------------|-----------------|-----------------|-----------------|
|-----------------|-----------------|-----------------|-----------------|
|-------1-2-------|---1-2---2S3-----|-------1-2-------|---1-2---2S3-----|
|-------0-1-------|---0-1---1S2-0-0-|-------0-1-------|---0-1---1S2-0-0-|


  N.E.  EbFb5 N.E.    EbFb5   F#N.C.    E   EbFb5 Bb5
  E E E E E E E E   E E E E E E E E   E E E E E E E E   E E E E E E E E
|---------8-7-----|---------8-7---7-|---------8-7-----|---------8-7---7-||
|---6---6-------6-|---6---6-----6---|---6---6-------6-|---6---6-----6---||
|-9---9-------9---|-9---9-----------|-9---9-------9---|-9---9-----------||
|-----------------|-----------------|-----------------|-----------------||
|-----------------|-----------------|-----------------|-----------------||
|-----------------|-----------------|-----------------|-----------------||
|
|                               PM|
| E E E E E E E E   E E E E E E E E   E E E E E E E E   E E E E E E E E
|-0-0---------0-0-|-----------------|-0-0-------------|-----------------||
|-6s5---------6s5-|-----------------|-6s5-------------|-----------------||
|-----------------|-----------------|-------------4-4-|-4-4-4-4-4-4-4-4-||
|-----------------|-----------------|-------------3-3-|-3-3-3-3-3-3-3-3-||
|-------1-2-------|---1-2---2S3-----|-------1-2---2-2-|-2-2-2-2-2-2-2-2-||
|-------0-1-------|---0-1---1S2-0-0-|-------0-1-------|-----------------||


 "No matter what always.."
  E5           G5              F5        E5           G5              F5
  H.           Q     +H        H         H.           Q     +H        H
|------------------|-------------------|------------------|-------------------|
|------------------|-------------------|------------------|-------------------|
|------------------|-------------------|------------------|-------------------|
|-2------------5---|-(5)-------3-------|-2------------5---|-(5)-------3-------|
|-2------------5---|-(5)-------3-------|-2------------5---|-(5)-------3-------|
|-0------------3---|-(3)-------1-------|-0------------3---|-(3)-------1-------|
|
| E  E E E E E E E    E  E E E E E E E   E  E E E E E E E    E  E E E E E E E
|------------------|-------------------|------------------|-------------------|
|------------------|-------------------|------------------|-------------------|
|-4--4-4-4-4-4-4-5-|--4--4-4-4-4-4-4-5-|-7--7-7-7-7-7-7-7-|--7--7-7-7-7-7-7-7-|
|-x--x-x-x-x-x-x-x-|--x--x-x-x-x-x-x-x-|-x--x-x-x-x-x-x-x-|--x--x-x-x-x-x-x-x-|
|-2--2-2-2-2-2-2-3-|--2--2-2-2-2-2-2-3-|-5--5-5-5-5-5-5-5-|--5--5-5-5-5-5-5-5-|
|------------------|-------------------|------------------|-------------------|


  E5                 G5                 F5
   H.                Q     +H            H
|------------------------|------------------------|
|------------------------|------------------------|
|------------------------|------------------------|
|--2-----------------5---|-(5)-----------3--------|
|--2-----------------5---|-(5)-----------3--------|
|--0-----------------3---|-(3)-----------1--------|
|
|  E   E  E  E  E  E E E    E   E  E  E  E  E E E
|------------------------|------------------------|
|------------------------|------------------------|
|-12--12-12-11-11-11-9-9-|-12--12-12-11-11-11-9-9-|
|--x---x--x--x--x--x-x-x-|--x---x--x--x--x--x-x-x-|
|-10--10-10--9--9--9-7-7-|-10--10-10--9--9--9-7-7-|
|------------------------|------------------------|


  E5             G5             F5
   H.            Q     +H        H
|--------------------|------------------|
|--------------------|------------------|
|--------------------|------------------|
|--2-------------5---|-(5)-------3------|
|--2-------------5---|-(5)-------3------|
|--0-------------3---|-(3)-------1------|
|
|  |--3--|  |--3---|    |--3--|  |3-|
|  Q   Q Q  Q  Q   Q    Q   Q Q  Q  H
|--------------------|------------------|
|--------------------|------------------|
|-12--11-9-12-11---9-|-12--11-9-12-11---|
|--x---x-x--x--x---x-|--x---x-x--x--x---|
|-10---9-7-10--9---7-|-10---9-7-10--9---|
|--------------------|------------------|


    E5       G5          F5     E5       G5          F5
    Gtrs I, II
         PM|                         PM|
    H    E E Q    +H     H      H    E E Q    +H     H
||--------------|-------------|-------------|--------------||
||o-------------|-------------|-------------|-------------o||
||--------------|-------------|-------------|--------------||
||--2--------5--|-(5)----3----|-2--------5--|-(5)----3-----||
||o-2----2-2-5--|-(5)----3----|-2----2-2-5--|-(5)----3----o||
||--0----0-0-3--|-(3)----1----|-0----0-0-3--|-(3)----1-----||


 "Reopen the wounds.."
  Kill the scene Q=130
  E5          C/E          N.C.
  Gtrs I, II
   >                               <
   W          +W           +H      H       +W
|-----------|------------|--------[7]----|-(7)-----------------|
|-----------|------------|---------------|---------------------|
|-----------|------------|---------------|---------------------|
|-/9--------|-(9)--------|-(9)-----------|---------------------|
|-/7--------|-(7)--------|-(7)-----------|---------------------|
|--0--------|-(0)--------|-(0)-----------|---------------------|
|
| Gtr III
|  W           W            W               E. E. E  E. E. E
|-----------|-^8---------|-^7------------|--2--3--2--2--3--2---|
|-----------|-^5---------|-^x------------|---------------------|
|-----------|------------|-^5------------|---------------------|
|-----------|------------|---------------|---------------------|
|-----------|------------|---------------|---------------------|
|-----------|------------|---------------|---------------------|
|
| Gtr IV
|  W           W            W               H        H
|-----------|------------|---------------|----------10---------|
|-----------|------------|---------------|--7------------------|
|-----------|------------|---------------|---------------------|
|-----------|------------|---------------|---------------------|
|-----------|------------|---------------|---------------------|
|-----------|------------|---------------|---------------------|


  E            C/E          N.C.
  +W           +W           +W           +W
|-(7)--------|-(7)--------|-(7)--------|-(7)------------|
|------------|------------|------------|----------------|
|------------|------------|------------|----------------|
|------------|------------|------------|----------------|
|------------|------------|------------|----------------|
|------------|------------|------------|----------------|
|
| Gtr III
|  W            W            W            E. E. E  H
|-^0---------|-^8---------|-^7---------|--2--3--2--3----|
|-^5---------|-^5---------|-^x---------|----------------|
|------------|------------|-^5---------|----------------|
|------------|------------|------------|----------------|
|------------|------------|------------|----------------|
|------------|------------|------------|----------------|
|
|  W           +W           +W            H        H
|------------|------------|------------|----------10----|
|--5---------|-(5)--------|-(5)--------|--7-------------|
|------------|------------|------------|----------------|
|------------|------------|------------|----------------|
|------------|------------|------------|----------------|
|------------|------------|------------|----------------|


  Em/G                                               E5
                                                     Gtr I
  +W            +W            +W            +H.      q
|-(7)--------|--(7)--------|--(7)--------|--(7)---------||
|------------|-------------|-------------|--------------||
|------------|-------------|-------------|--------------||
|------------|-------------|-------------|--------------||
|------------|-------------|-------------|-----------2--||
|------------|-------------|-------------|-----------0--||
|
|                                                    Gtr II
|  W             W             W             H.      q
|-^0---------|-^(0)--------|-^(0)--------|-^(0)---------||
|-^8---------|-^(8)--------|-^(8)--------|-^(8)---------||
|------------|-------------|-------------|--------------||
|------------|-------------|-------------|--------------||
|------------|-------------|-------------|-----------2--||
|------------|-------------|-------------|-----------0--||
|
|  W            +W            +W            +W
|------------|-------------|-------------|--------------||
|------------|-------------|-------------|--------------||
|------------|-------------|-------------|--------------||
|------------|-------------|-------------|--------------||
|-(7)--------|--(7)--------|--(7)--------|--(7)---------||
|-(0)--------|--(0)--------|--(0)--------|--(0)---------||


 "Pull up the floorboards.."
  Return the crush Q=153
  N.C.
  Gtr I
  E E E E E E E E   E  E  E  E E  E E  E
|-----------------|----------------------|
|-----------------|----------------------|
|-5-5-5-5-5-5-5-5-|-5--5--5--5-5--5-5--5-|
|-x-x-x-x-x-x-x-x-|-x--x--x--x-x--x-x--x-|
|-3-3-3-3-3-3-3-3-|-3--3--3--3-3--3-3--3-|
|-----------------|----------------------|
|
| Gtr II
| E E E E E E E E   E  E  E  Q    E Q
|-----------------|----------------------|
|-----------------|----------------------|
|-5-5-5-5-5-5-5-5-|-5-12-12-11---11-9\---|
|-x-x-x-x-x-x-x-x-|-x--x--x--x----x-x----|
|-3-3-3-3-3-3-3-3-|-3-10-10--9----9-7\---|
|-----------------|----------------------|


  E5
   E    E     E  E  E    E  E  E    E    E     E  E  E    E  E  E
|--------------------------------|--------------------------------|
|--------------------------------|--------------------------------|
|-16---16----16-17-16---16-16-17-|-16---16----16-17-16---16-16-17-|
|--x----x-----x--x--x----x--x--x-|--x----x-----x--x--x----x--x--x-|
|-14---14----14-15-14---14-14-15-|-14---14----14-15-14---14-14-15-|
|--------------------------------|--------------------------------|
|
|  PM-----------------|     PM-------------------------|     PM
|  S S  S E.     E  S S  E  q       S S  S E.     E  S S  E  q
|--------------------------------|--------------------------------|
|--------------------------------|--------------------------------|
|--------------------------------|--------------------------------|
|--------------------------------|--------------------------------|
|--2-2--2-2------2--2-2-----2----|--2-2--2-2------2--2-2-----2----|
|--0-0--0-0------0--0-0-----0----|--0-0--0-0------0--0-0-----0----|


    N.C.
    E E E E E E E E   E  E E  E E E E  E
||------------------|--------------------|
||o-----------------|--------------------|
||--5-5-5-5-5-5-5-5-|-5--5-5--5-5-5-5--5-|
||--x-x-x-x-x-x-x-x-|-x--x-x--x-x-x-x--x-|
||o-3-3-3-3-3-3-3-3-|-3--3-3--3-3-3-3--3-|
||------------------|--------------------|
|
|   E E E E E E E E   E  E E  E E E Q
||------------------|--------------------|
||o-----------------|--------------------|
||--5-5-5-5-5-5-5-5-|-5-12-x-11-x-9-7\---|
||--x-x-x-x-x-x-x-x-|-x--x-x--x-x-x-x----|
||o-3-3-3-3-3-3-3-3-|-3-10-x--9-x-7-5\---|
||------------------|--------------------|


  E5
   E    E     E  E  E    E  E  E    E    E     E  E  E    E  E  E    3x
|--------------------------------|-----------------------------------||
|--------------------------------|----------------------------------o||
|-16---16----16-17-16---16-16-17-|-16---16----16-17-16---16-16-17----||
|--x----x-----x--x--x----x--x--x-|--x----x-----x--x--x----x--x--x----||
|-14---14----14-15-14---14-14-15-|-14---14----14-15-14---14-14-15---o||
|--------------------------------|-----------------------------------||
|
|  PM-----------------|     PM-------------------------|     PM
|  S S  S E.     E  S S  E  q       S S  S E.     E  S S  E  q       3x
|--------------------------------|-----------------------------------||
|--------------------------------|----------------------------------o||
|--------------------------------|-----------------------------------||
|--------------------------------|-----------------------------------||
|--2-2--2-2------2--2-2-----2----|--2-2--2-2------2--2-2-----2------o||
|--0-0--0-0------0--0-0-----0----|--0-0--0-0------0--0-0-----0-------||


  E5
   E    E     E  E  E    E  E  E    E    E     E  E  E    E  E  E
|--------------------------------|--------------------------------|
|--------------------------------|--------------------------------|
|-16---16----16-17-16---16-16-17-|-16---16----16-17-16---16-16-17-|
|--x----x-----x--x--x----x--x--x-|--x----x-----x--x--x----x--x--x-|
|-14---14----14-15-14---14-14-15-|-14---14----14-15-14---14-14-15-|
|--------------------------------|--------------------------------|
|
|  PM-----------------|     PM-------------------------|     PM----
|  S S  S E.     E  S S  E  q       S S  S E.     E  S S  E  q
|--------------------------------|--------------------------------|
|--------------------------------|--------------------------------|
|--------------------------------|--------------------------------|
|--------------------------------|--------------------------------|
|--2-2--2-2------2--2-2-----2----|--2-2--2-2------2--2-2-----2----|
|--0-0--0-0------0--0-0-----0----|--0-0--0-0------0--0-0-----0----|


  G5
   E    E     E  E  E    E  E  E    E    E     E  E  E    E  E  E
|--------------------------------|--------------------------------|
|--------------------------------|--------------------------------|
|-16---16----16-17-16---16-16-17-|-16---16----16-17-16---16-16-17-|
|--x----x-----x--x--x----x--x--x-|--x----x-----x--x--x----x--x--x-|
|-14---14----14-15-14---14-14-15-|-14---14----14-15-14---14-14-15-|
|--------------------------------|--------------------------------|
|
|---------------------|     PM-------------------------|     PM
|  S S  S E.     E  S S  E  q       S S  S E.     E  S S  E  q
|--------------------------------|--------------------------------|
|--------------------------------|--------------------------------|
|--------------------------------|--------------------------------|
|--------------------------------|--------------------------------|
|--5-5--5-5------5--5-5-----5----|--5-5--5-5------5--5-5-----5----|
|--3-3--3-3------3--3-3-----3----|--3-3--3-3------3--3-3-----3----|


  F#5
 2/4
   E  E  E  E    E   E  E  E    E   E  E  E    E   E  q
|-------------|--------------|--------------|------------||
|-------------|--------------|--------------|------------||
|-16-16-16-17-|-16--16-16-17-|-16--16-16-17-|-16--16-17--||
|--x--x--x--x-|--x---x--x--x-|--x---x--x--x-|--x---x--x--||
|-14-14-14-15-|-14--14-14-15-|-14--14-14-15-|-14--14-15--||
|-------------|--------------|--------------|------------||
|
|  H            +H             +H             +H
|-------------|--------------|--------------|------------||
|-------------|--------------|--------------|------------||
|-------------|--------------|--------------|------------||
|--4----------|-(4)----------|-(4)----------|-(4)--------||
|--4----------|-(4)----------|-(4)----------|-(4)--------||
|--2----------|-(2)----------|-(2)----------|-(2)--------||


   Breakdown
    E5
   4/4
    Gtrs I, II
    PM----|   PM------|      PM--|    PM
    S S S E S E S S E q    E S S E Q  q  E
||-----------------------|-----------------|
||o----------------------|-----------------|
||-----------------------|-----------------|
||-----------------------|-----------------|
||o-2-2-2-2---2-2-2---2--|---2-2-2----2----|
||--0-0-0-0---0-0-0---0--|---0-0-0----0----|


                                 N.C.
  PM----|   PM-----------------|
  S S S E S E S S E q    E E E E E E E E
|----------------------|------------------||
|----------------------|-----------------o||
|----------------------|------------------||
|----------------------|------------------||
|-2-2-2-2---2-2-2---2--|-2-2-2-2---------o||
|-0-0-0-0---0-0-0---0--|-0-0-0-0-3-2-2-1--||


    E5              CbE5  Cb5 E5          N.C.
    PM----|   PM--|   PM|     PM----|   PM
    S S S E S E S S E S S E   S S S E S E E E E E
||--------------------------|---------------------|
||o-------------------------|---------------------|
||------------------5-----5-|---------------------|
||------------------4-----4-|---------------------|
||o-2-2-2-2---2-2-2-3-2-2-3-|-2-2-2-2---2---------|
||--0-0-0-0---0-0-0---0-0---|-0-0-0-0---0-3-2-2-1-|


  E5              CbE5  Cb5 E5          N.C.
  PM----|   PM--|   PM|     PM----|   PM
  S S S E S E S S E S S E   S S S E S E E E E E
|-------------------------|-------------------------||
|-------------------------|------------------------o||
|-----------------5-----5-|-------------------------||
|-----------------4-----4-|-------------------------||
|-2-2-2-2---2-2-2-3-2-2-3-|-2-2-2-2---2------------o||
|-0-0-0-0---0-0-0---0-0---|-0-0-0-0---0-3-2-2-1-----||


 Outro
  E5
             PM-----------------|
  W          S S S S S S S S q  q    W          W
|----------|-----------------------|----------|------*|
|----------|-----------------------|----------|------*|
|----------|-----------------------|----------|------*|
|-2--------|-----------------------|----------|------*|
|-2--------|-2-2-2-2-2-2-2-2-2--2--|----------|------*|
|-0--------|-0-0-0-0-0-0-0-0-0--0--|----------|------*|





Comments


Popular Bled tabs & chords
His First Crush Bass Tabs
Ok But This Is How It Really Happened Bass Tabs
Red Wedding Bass Tabs
Ruth Buzzi Better Watch Her Back 1 Bass Tabs
House Of Suffering Tabs
I Never Met Another Gemini 2 Tabs
Last American Cowboy Intro Tabs
Ok But This Is How It Really Happened Tabs
Porcelain Hearts And Hammers For Teeth 1 Tabs
Ruth Buzzi Better Watch Her Back Tabs


Song lyrics



↑ Back to top | Tablatures and chords are parodies/interpretations of the original songs. You may use it for private study, scholarship, research or language learning purposes only
© 2014 AZChords.com Contact us | Privacy policy | DMCA | Add/correct tabs | Request tabs | Top 50 tabs