» » »

Bled, Get Up You Son Of A Bitch, Cause Mickey Loves Ya Bass tabs (ver.1)

Artists:  A B C D E F G H I J K L M N O P Q R S T U V W X Y Z # 

Get Up You Son Of A Bitch, Cause Mickey Loves Ya Bass tabs (ver.1)

Bled Tabs
 Rating:
4/5 (4 votes)
Get Up You Son Of A Bitch, Cause Mickey Loves Ya lessons Tabs too difficult? Try these video lessons and learn fast
                
GET UP YOU SON OF A b**ch, CAUSE MICKEY LOVES YA (Bassline)
As recorded by The Bled
(From the 2003 Album PASS THE FLASK)

	

Words and Music by The Bled
Arranged by The Bled

Gtr I (D G C F) - 'Bass'

 "The telephone.."
  Dancefight Q=209
 3/4
  Gtr I
  Q  E E E E   Q  E E E E   Q  E E E E   Q  Q  Q
|------------|------------|------------|----------|
|------------|------------|------------|----------|
|-2----------|------------|-2----------|-6--6--6--|
|----3-5-3-0-|-2--3-5-3-0-|----3-5-3-0-|----------|


                                    2/4
  Q  E E E E   Q  Q  Q    Q  Q  Q    H
|------------|----------|----------|------||
|------------|----------|----------|------||
|-2----------|-6--6--6--|-6--6-----|------||
|----3-5-3-0-|----------|----------|------||


   "The crackle and hiss.."
   3/4
    Q  E E E E   Q  E E E E   Q  E E E E   H    +Q
||-------------|------------|------------|-------------||
||o------------|------------|------------|------------o||
||o-2----------|------------|-2----------|-6----(6)\--o||
||-----3-5-3-0-|-2--3-5-3-0-|----3-5-3-0-|-------------||


   "Just to forget what.."
    Q  E E E E   Q  E E E E   Q  E E E E   Q  E E E E
||-------------|------------|------------|--------------||
||o------------|------------|------------|-------------o||
||o-2----------|-2----------|-2----------|-2-----------o||
||-----3-5-3-0-|----3-5-3-0-|----3-5-3-0-|----3-5-3-0---||


 Bridge
  Get stabby, mofo Q=227
 4/4
  E E E E E Q  E   E E E E E Q  E   E E E E E Q  E   E E E E E E Q
|----------------|----------------|----------------|----------------||
|----------------|----------------|----------------|----------------||
|----------------|----------------|----------------|----------------||
|-5-0-5-0-5-0--0-|-5-0-5-0-5-0--0-|-5-0-5-0-5-0--0-|-5-0-5-0-0-0----||


 Drum Fill
  E E E E E Q  E   E E E E E Q  E   E E E E E Q  E   E E E E E E Q
|----------------|----------------|----------------|----------------||
|----------------|----------------|----------------|----------------||
|----------------|----------------|----------------|----------------||
|-5-0-5-0-5-0--0-|-5-0-5-0-5-0--0-|-5-0-5-0-5-0--0-|-5-5-5-5-0-0----||


 "This is the last time.."
  E E E E E E E E   E E E E E E E E   E E E E E E E E   E E E E E E E E
|-----------------|-----------------|-----------------|-----------------|
|-----------------|-----------------|-----------------|-----------------|
|-----------------|-----------------|-----------------|-----------------|
|-5-0-5-0-5-0-5-0-|-5-0-5-0-5-0-5-0-|-5-0-5-0-5-0-5-0-|-5-0-5-0-5-0-5-0-|


                                                                    |-3-|
  E E E E E E E E   E E E E E E E E   E E E E E E E E   E E E E E E E E E
|-----------------|-----------------|-----------------|-------------------|
|-----------------|-----------------|-----------------|-------------------|
|-----------------|-----------------|-----------------|-------------------|
|-5-0-5-0-5-0-5-0-|-5-0-5-0-5-0-5-0-|-5-0-5-0-5-0-5-0-|-5-0-5-0-5-0-0-0-0-|


  Q  Q  h      Q  Q  h      Q  Q  h      Q  Q  h
|------------|------------|------------|------------|
|------------|------------|------------|------------|
|-x----------|-x----------|-x----------|-x----------|
|----x--0----|----x--0----|----x--0----|----x--0----|


   W           +W           h    h      h    h
|------------|------------|-----------|-----------||
|------------|------------|-----------|-----------||
|-(7)--------|-(7)--------|-----------|-----------||
|--0---------|-(0)--------|-0----0----|-0----0----||


   "Forget the f**k away.."
    Dance, suckah! Q=235
   3/4                                            4/4
    Q  E E E E   H    Q    Q  Q  Q    E E E Q.     Q  H.
||-------------|---------|----------|------------|----------|
||o------------|---------|----------|------------|----------|
||o-2----------|---------|----0--2--|------------|----------|
||-----2-3-2---|------2--|-3--------|-2-3-2------|----0-----|


                                                 1.
 3/4                                            4/4          3/4
  Q  E E E E   H    Q    Q  Q  Q    E E E Q.     Q  H.        H.
|------------|---------|----------|------------|------------|--------||
|------------|---------|----------|------------|------------|-------o||
|-2----------|---------|----0--2--|------------|------------|-------o||
|----2-3-2---|------2--|-3--------|-2-3-2------|----0-------|-0------||


  2.
 4/4                                    5/4
  Q  H.        W          +Q   H.        W        +Q
|------------|----------|--------------|----------------||
|------------|----------|--------------|----------------||
|------------|----------|--------------|----------------||
|----0-------|-0--------|-(0)--0-------|-0--------(0)---||


   Interlude
   3/4
    Q  E E E E   H    Q    Q  Q  Q    E E E Q.
||-------------|---------|----------|------------|
||o------------|---------|----------|------------|
||o-2----------|---------|----0--2--|------------|
||-----2-3-2---|------2--|-3--------|-2-3-2------|


  Q  Q  Q    Q  Q  E E   E E H      Q  Q  Q
|----------|-----------|----------|----------|
|----------|-----------|----------|----------|
|----------|-0--2------|----------|-------0--|
|----2--3--|-------2-3-|-2--------|-2--3-----|


                           2/4
  Q  E E E E   Q  E E E E   E E E E
|------------|------------|----------||
|------------|------------|---------o||
|-2----------|-2--7-7-7-7-|-7-7-7-7-o||
|----2-3-2---|------------|----------||


 "The child is sleeping.."
 3/4
  Q  Q  Q    Q  Q  Q    E E E E Q    Q  Q  q
|----------|----------|------------|----------|
|----------|----------|-4p0--------|----------|
|-2--------|-2--------|-----3p0-2--|----------|
|----3--2--|----3--2--|------------|-3--2--0--|


                                    4/4
  Q  Q  Q    Q  Q  Q    Q  E E E E   Q  Q  H
|----------|----------|------------|------------*|
|----------|----------|----4p0-----|------------*|
|----------|----2-----|--------3p0-|-2----------*|
|----2--3--|-2-----3--|-2----------|----3--2----*|



Duration Legend
---------------
W - whole; H - half; Q - quarter; E - 8th; S - 16th; T - 32nd; X - 64th; a - acciaccatura
+ - note tied to previous; . - note dotted; .. - note double dotted
Uncapitalized letters represent notes that are staccato (1/2 duration)
Irregular groupings are notated above the duration line
Duration letters will always appear directly above the note/fret number it represents the
duration for.  Duration letters with no fret number below them represent rests.  Multi-
bar rests are notated in the form Wxn, where n is the number of bars to rest for.  Low
melody durations appear below the staff

Tablature Legend
----------------
 h   - hammer-on
 p   - pull-off
 b   - bend
 pb  - pre-bend
 r   - bend release (if no number after the r, then release immediately)
 /\  - slide into or out of (from/to "nowhere")
 s   - legato slide
 S   - shift slide
 - natural harmonic
[n]  - artificial harmonic
n(n) - tapped harmonic
 ~   - vibrato
 tr  - trill
 T   - tap
 TP  - trem. picking
 PM  - palm muting
\n/  - tremolo bar dip; n = amount to dip
 \n  - tremolo bar down
 n/  - tremolo bar up
/n\  - tremolo bar inverted dip
 =   - hold bend; also acts as connecting device for hammers/pulls
 <> - volume swell (louder/softer)
 x   - on rhythm slash represents muted slash
 o   - on rhythm slash represents single note slash

Misc Legend
-----------
 |  - bar
||  - double bar
||o - repeat start
o|| - repeat end
*|  - double bar (ending)
 :  - bar (freetime)
 $  - Segno
 &  - Coda
Tempo markers -  = BPM(8/16=s8/s16), where s8 = swing 8ths, s16 = swing 16ths
            
Submit corrections

comments powered by Disqus
↑ Back to top | Bled Bass for Get Up You Son Of A Bitch, Cause Mickey Loves Ya. Lyrics for acoustic guitar and electric guitar. Tablatures and chords are parodies/interpretations of the original songs. You may use it for private study, scholarship, research or language learning purposes only