>
 >
Get Up You Son Of A Bitch, Cause Mickey Loves Ya

Get Up You Son Of A Bitch, Cause Mickey Loves Ya Guitar Tabs

Bled - Get Up You Son Of A Bitch, Cause Mickey Loves Ya chords, tabs, tablatures, lyrics

Guitar lessons | Add/correct | Request | Top 50 tabs Artists:  A B C D E F G H I J K L M N O P Q R S T U V W X Y Z 0-9

Get Up You Son Of A Bitch, Cause Mickey Loves Ya Guitar Tabs – Bled

CD, Sheet music, Poster

Do you like Get Up You Son Of A Bitch, Cause Mickey Loves Ya? Share with your friends now
Bass TabsTabs
#------------------------------------------------------------------------------##

                GET UP YOU SON OF A BITCH, CAUSE MICKEY LOVES YA
                             As recorded by The Bled
                      (From the 2003 Album PASS THE FLASK)

Words and Music by The Bled
Arranged by The Bled

Gtr I (D G C F A D) - 'Untitled'
Gtr II (D G C F A D) - 'Untitled'

 "The telephone.."
  Dancefight Q=209
  Ab5F5G5F5D5  F#bF5G5F5D5  Ab5F5G5F5D5  C#b5
 3/4
  Gtrs I, II
  Q  E E E E   Q  E E E E   Q  E E E E   Q  Q  Q
|------------|------------|------------|----------|
|------------|------------|------------|----------|
|-4----------|------------|-4----------|-8--8--8--|
|-3----------|-4----------|-3----------|-7--7--7--|
|-2--5-7-5-2-|-3--5-7-5-2-|-2--5-7-5-2-|-6--6--6--|
|----3-5-3-0-|-2--3-5-3-0-|----3-5-3-0-|----------|


  Ab5F5G5F5D5  C#b5                  N.C.
                                    2/4
  Q  E E E E   Q  Q  Q    Q  Q  Q    H
|------------|----------|----------|------||
|------------|----------|----------|------||
|-4----------|-8--8--8--|-8--8-----|------||
|-3----------|-7--7--7--|-7--7-----|------||
|-2--5-7-5-2-|-6--6--6--|-6--6-----|------||
|----3-5-3-0-|----------|----------|------||


   "The crackle and hiss.."
    Ab5F5G5F5D5  F#bF5G5F5D5  Ab5F5G5F5D5  C#b5
   3/4
    Q  E E E E   Q  E E E E   Q  E E E E   H    +Q
||-------------|------------|------------|-------------||
||o------------|------------|------------|------------o||
||--4----------|------------|-4----------|-8----(8)\---||
||--3----------|-4----------|-3----------|-7----(7)\---||
||o-2--5-7-5-2-|-3--5-7-5-2-|-2--5-7-5-2-|-6----(6)\--o||
||-----3-5-3-0-|-2--3-5-3-0-|----3-5-3-0-|-------------||


   "Just to forget what.."
    Ab5F5G5F5D5  Ab5F5G5F5D5  Ab5F5G5F5D5  Ab5F5G5F5D5
    Q  E E E E   Q  E E E E   Q  E E E E   Q  E E E E
||-------------|------------|------------|--------------||
||o------------|------------|------------|-------------o||
||--4----------|-4----------|-4----------|-4------------||
||--3----------|-3----------|-3----------|-3------------||
||o-2--5-7-5-2-|-2--5-7-5-2-|-2--5-7-5-2-|-2--5-7-5-2--o||
||-----3-5-3-0-|----3-5-3-0-|----3-5-3-0-|----3-5-3-0---||


 Bridge
  Get stabby, mofo Q=227
  C#b5                                        N.C.
 4/4
  Gtr I
  W          +W           +W           +H      E   E  Q
|----------|------------|------------|-------------------||
|----------|------------|------------|--------<7>-<7>----||
|-8--------|-(8)--------|-(8)--------|-(8)----<5>-<5>----||
|-7--------|-(7)--------|-(7)--------|-(7)---------------||
|-6--------|-(6)--------|-(6)--------|-(6)---------------||
|----------|------------|------------|-------------------||
|
| Gtr II
| W          +W           +W           +H      E   E  Q
|----------|------------|------------|---------x---x-----||
|----------|------------|------------|---------x---x-----||
|-8--------|-(8)--------|-(8)--------|-(8)-----x---x-----||
|-7--------|-(7)--------|-(7)--------|-(7)-----x---x-----||
|-6--------|-(6)--------|-(6)--------|-(6)-----x---x-----||
|----------|------------|------------|---------x---x-----||


 Drum Fill
  N.C.
  Gtrs I, II
  Wx4
|--------||
|--------||
|--------||
|--------||
|--------||
|--------||


 "This is the last time.."
  N.C.
  Gtr I
   q   q   q   q     q   q   q   q
|-----------------|-----------------|
|-13--13--13--13--|-13--13--13--13--|
|-16--16--16--16--|-16--16--16--16--|
|-----------------|-----------------|
|-----------------|-----------------|
|-----------------|-----------------|
|
| Gtr II
|  q   q   q   q     q   q   q   q
|-----------------|-----------------|
|--5---5---5---5--|--5---5---5---5--|
|--8---8---8---8--|--8---8---8---8--|
|-----------------|-----------------|
|-----------------|-----------------|
|-----------------|-----------------|


   q    q    q    q      q    q    q    q
|---------------------|---------------------|
|-13---13---13---13---|-13---13---13---13---|
|-16---16---16---16---|-16---16---16---16---|
|---------------------|---------------------|
|---------------------|---------------------|
|---------------------|---------------------|
|
|  E E  E E  E E  E E    E E  E E  E E  E E
|------------4--------|------------4--------|
|-------4-5----5--4---|-------4-5----5--4---|
|--4-5--------------5-|--4-5--------------5-|
|---------------------|---------------------|
|---------------------|---------------------|
|---------------------|---------------------|


  N.C.
   q   q   q   q     q   q   q   q     q    q    q    q      q    q    q    q
|-----------------|-----------------|---------------------|--------------------|
|-13--13--13--13--|-13--13--13--13--|-13---13---13---13---|-13---13---13---13--|
|-16--16--16--16--|-16--16--16--16--|-16---16---16---16---|-16---16---16---16--|
|-----------------|-----------------|---------------------|--------------------|
|-----------------|-----------------|---------------------|--------------------|
|-----------------|-----------------|---------------------|--------------------|
|
|  q   q   q   q     q   q   q   q     Q    Q    Q    Q      Q    Q    Q    Q
|-----------------|-----------------|-<5>-------<5>-------|-<5>-------<5>------|
|--5---5---5---5--|--5---5---5---5--|------<5>-------<5>--|------<5>-----------|
|--8---8---8---8--|--8---8---8---8--|---------------------|--------------------|
|-----------------|-----------------|---------------------|--------------------|
|-----------------|-----------------|---------------------|--------------------|
|-----------------|-----------------|---------------------|--------------------|


  N.C.
   Q    Q   Q    Q     Q    Q   Q    Q
|-------------------|-------------------|
|------13-------13--|------13-------13--|
|------16-------16--|------16-------16--|
|-------------------|-------------------|
|-------------------|-------------------|
|-------------------|-------------------|
|
|  Q    Q   Q    Q     Q    Q   Q    Q
|-------------------|-------------------|
|-<7>------<7>------|-<7>------<7>------|
|-<5>------<5>------|-<5>------<5>------|
|-------------------|-------------------|
|-------------------|-------------------|
|-------------------|-------------------|


   Q    Q   Q    Q     Q    Q   Q    Q
|-------------------|-------------------|
|------13-------13--|------13-------13--|
|------16-------16--|------16-------16--|
|-------------------|-------------------|
|-------------------|-------------------|
|-------------------|-------------------|
|
|  Q    Q   Q    Q     Q    Q   Q    Q
|-------------------|-------------------|
|-<7>------<7>------|-<7>------<7>------|
|-<5>------<5>------|-<5>------<5>------|
|-------------------|-------------------|
|-------------------|-------------------|
|-------------------|-------------------|


  E5
   W                    +W
|---------------------|---------------------|
|---------------------|---------------------|
|---------------------|---------------------|
|--2------------------|-(2)-----------------|
|--2------------------|-(2)-----------------|
|--0------------------|-(0)-----------------|
|
|  Q    Q    Q    Q      Q    Q    Q    Q
|---------------------|---------------------|
|-<7>-------<7>-------|-<7>-------<7>-------|
|------<5>-------<5>--|------<5>-------<5>--|
|---------------------|---------------------|
|---------------------|---------------------|
|---------------------|---------------------|


  N.C.
   Q   Q   Q   Q     Q   Q   Q   Q
|-----------------|-----------------||
|-13------13------|-13------13------||
|-16------16------|-16------16------||
|-----------------|-----------------||
|-----------------|-----------------||
|-----------------|-----------------||
|
|  Q   Q   Q   Q     Q   Q   Q   Q
|-----------------|-----------------||
|-<7>-----<7>-----|-<7>-----<7>-----||
|-<5>-----<5>-----|-<5>-----<5>-----||
|-----------------|-----------------||
|-----------------|-----------------||
|-----------------|-----------------||


   "Forget the fuck away.."
    Dance, suckah! Q=235
    B5 F#G5F#5             G5 A5 B5   F#G5F#5         E5
   3/4                                            4/4
    Gtrs I, II
                                                      PM
    Q  E E E E   H    Q    Q  Q  Q    E E E Q.     Q  H.
||-------------|---------|----------|------------|----------|
||o------------|---------|----------|------------|----------|
||-------------|---------|----------|------------|----------|
||--4----------|---------|----2--4--|------------|----------|
||o-2--4-5-4---|------4--|-5--0--2--|-4-5-4------|----2-----|
||-----2-3-2---|------2--|-3--------|-2-3-2------|----0-----|


                                                 1.
  B5 F#G5F#5             G5 A5 B5   F#G5F#5         E5
 3/4                                            4/4          3/4
                                                    PM--------|
  Q  E E E E   H    Q    Q  Q  Q    E E E Q.     Q  H.        H.
|------------|---------|----------|------------|------------|--------||
|------------|---------|----------|------------|------------|-------o||
|------------|---------|----------|------------|------------|--------||
|-4----------|---------|----2--4--|------------|------------|--------||
|-2--4-5-4---|------4--|-5--0--2--|-4-5-4------|----2-------|-2-----o||
|----2-3-2---|------2--|-3--------|-2-3-2------|----0-------|-0------||


  2.
     E5
 4/4                                  5/4
  Gtr I
     PM--------|             PM--------|
  Q  H.        W          Q  H.        W            +Q
|------------|----------|------------|--------------------||
|------------|----------|------------|--------------------||
|------------|----------|------------|--------------------||
|------------|----------|------------|--------------------||
|----2-------|-2--------|----2-------|-2------------(2)---||
|----0-------|-0--------|----0-------|-0------------(0)---||
|
| Gtr II
|    PM--------|             PM--------|
| Q  H.        W          Q  H.        H.       H
|------------|----------|------------|--------------------||
|------------|----------|------------|---------<7>--------||
|------------|----------|------------|---------<5>--------||
|------------|----------|------------|--------------------||
|----2-------|-2--------|----2-------|-2------------------||
|----0-------|-0--------|----0-------|-0------------------||


 Interlude
  B5  F#G5F#5                 G5  A5  B5      F#5G5 F#5
 3/4
  Q   E E E E   H       Q     Q   Q    Q       E  E  E  Q.
|-------------|-------------|---------------|--------------------|
|-------------|-------------|---------------|--------------------|
|-------------|-------------|---------------|--------------------|
|-4-----------|-------------|-----2----4----|--------------------|
|-2---4-5-4---|---------4---|-5---0----2----|--4--5--4-----------|
|-----2-3-2---|---------2---|-3-------------|--2--3--2-----------|
|
| E E E E E E   E E E E E E   E E E E  E  E    E  E  E  E   E  E
|-------------|-------------|---------------|--------------------|
|-------------|-------------|---------------|--------------------|
|-9-9-9-9-9-9-|-9-9-9-9-9-9-|-9-9-9-9-11-11-|-11-11-11-11--11-11-|
|-x-x-x-x-x-x-|-x-x-x-x-x-x-|-x-x-x-x--x--x-|--x--x--x--x---x--x-|
|-7-7-7-7-7-7-|-7-7-7-7-7-7-|-7-7-7-7--9--9-|--9--9--9--9---9--9-|
|-------------|-------------|---------------|--------------------|


        F#5   G5      A5    B5    F#5G5
   Q     Q     Q       Q     Q     E  E
|-------------------|-------------------|
|-------------------|-------------------|
|-------------------|-------------------|
|-------------------|--2-----4----------|
|--------4-----5----|--0-----2-----4--5-|
|--------2-----3----|--------------2--3-|
|
|  E  E  E  E  E  E    E  E  E  E  E  E
|-------------------|-------------------|
|-------------------|-------------------|
|-11-11-11-11-11-11-|-11-11-14-14-14-14-|
|--x--x--x--x--x--x-|--x--x--x--x--x--x-|
|--9--9--9--9--9--9-|--9--9-12-12-12-12-|
|-------------------|-------------------|


  F#5                       G5    A5
   E  E  H             Q     Q     Q
|-------------------|-------------------|
|-------------------|-------------------|
|-------------------|-------------------|
|-------------------|--------------2----|
|--4----------------|--4-----5-----0----|
|--2----------------|--2-----3----------|
|
|  E  E  E  E  E  E    E  E  E  E  E  E
|-------------------|-------------------|
|-------------------|-------------------|
|-14-14-14-14-14-14-|-14-14-14-14-14-14-|
|--x--x--x--x--x--x-|--x--x--x--x--x--x-|
|-12-12-12-12-12-12-|-12-12-12-12-12-12-|
|-------------------|-------------------|


  B5    F#5G5 F#5     B5    N.C.
                                         2/4
   Q     E  E  E  E    Q     E  E  E  E    E  E  E  E
|-------------------|-------------------|-------------|
|-------------------|-------------------|-------------|
|-------------------|--------9--9--9--9-|--9--9--9--9-|
|--4----------------|--4-----x--x--x--x-|--x--x--x--x-|
|--2-----4--5--4----|--2-----7--7--7--7-|--7--7--7--7-|
|--------2--3--2----|-------------------|-------------|
|
|  E  E  E  E  E  E    E  E  E  E  E  E    E  E  E  E
|-------------------|-------------------|-------------|
|-------------------|-------------------|-------------|
|-12-12-12-12-12-12-|-12-12-14-14-14-14-|-14-14-14-14-|
|--x--x--x--x--x--x-|--x--x--x--x--x--x-|--x--x--x--x-|
|-10-10-10-10-10-10-|-10-10-12-12-12-12-|-12-12-12-12-|
|-------------------|-------------------|-------------|


  B5  F#G5F#5                 G5  A5  B5      F#5G5 F#5
 3/4
  Q   E E E E   H       Q     Q   Q    Q       E  E  E  Q.
|-------------|-------------|---------------|--------------------|
|-------------|-------------|---------------|--------------------|
|-------------|-------------|---------------|--------------------|
|-4-----------|-------------|-----2----4----|--------------------|
|-2---4-5-4---|---------4---|-5---0----2----|--4--5--4-----------|
|-----2-3-2---|---------2---|-3-------------|--2--3--2-----------|
|
| E E E E E E   E E E E E E   E E E E  E  E    E  E  E  E   E  E
|-------------|-------------|---------------|--------------------|
|-------------|-------------|---------------|--------------------|
|-9-9-9-9-9-9-|-9-9-9-9-9-9-|-9-9-9-9-11-11-|-11-11-11-11--11-11-|
|-x-x-x-x-x-x-|-x-x-x-x-x-x-|-x-x-x-x--x--x-|--x--x--x--x---x--x-|
|-7-7-7-7-7-7-|-7-7-7-7-7-7-|-7-7-7-7--9--9-|--9--9--9--9---9--9-|
|-------------|-------------|---------------|--------------------|


        F#5   G5      A5    B5    F#5G5
   Q     Q     Q       Q     Q     E  E
|-------------------|-------------------|
|-------------------|-------------------|
|-------------------|-------------------|
|-------------------|--2-----4----------|
|--------4-----5----|--0-----2-----4--5-|
|--------2-----3----|--------------2--3-|
|
|  E  E  E  E  E  E    E  E  E  E  E  E
|-------------------|-------------------|
|-------------------|-------------------|
|-11-11-11-11-11-11-|-11-11-14-14-14-14-|
|--x--x--x--x--x--x-|--x--x--x--x--x--x-|
|--9--9--9--9--9--9-|--9--9-12-12-12-12-|
|-------------------|-------------------|


  F#5                       G5    A5
   E  E  H             Q     Q     Q
|-------------------|-------------------|
|-------------------|-------------------|
|-------------------|-------------------|
|-------------------|--------------2----|
|--4----------------|--4-----5-----0----|
|--2----------------|--2-----3----------|
|
|  E  E  E  E  E  E    E  E  E  E  E  E
|-------------------|-------------------|
|-------------------|-------------------|
|-14-14-14-14-14-14-|-14-14-14-14-14-14-|
|--x--x--x--x--x--x-|--x--x--x--x--x--x-|
|-12-12-12-12-12-12-|-12-12-12-12-12-12-|
|-------------------|-------------------|


  B5    F#5G5 F#5     B5    N.C.
                                         2/4
   Q     E  E  E  E    Q     E  E  E  E    E  E  E  E
|-------------------|-------------------|-------------||
|-------------------|-------------------|-------------||
|-------------------|--------9--9--9--9-|--9--9--9--9-||
|--4----------------|--4-----x--x--x--x-|--x--x--x--x-||
|--2-----4--5--4----|--2-----7--7--7--7-|--7--7--7--7-||
|--------2--3--2----|-------------------|-------------||
|
|  E  E  E  E  E  E    E  E  E  E  E  E    E  E  E  E
|-------------------|-------------------|-------------||
|-------------------|-------------------|-------------||
|-16-16-16-16-16-16-|-16-16-17-17-17-17-|-17-17-17-17-||
|--x--x--x--x--x--x-|--x--x--x--x--x--x-|--x--x--x--x-||
|-14-14-14-14-14-14-|-14-14-15-15-15-15-|-15-15-15-15-||
|-------------------|-------------------|-------------||


 "The child is sleeping.."
  B5 G5 F#5  B5 G5 F#5  N.C.    B5   G5 F#5E5
 3/4
  Gtrs I, II
  Q  Q  Q    Q  Q  Q    E E E E Q    Q  Q  q
|----------|----------|------------|----------|
|----------|----------|------------|----------|
|----------|----------|------------|----------|
|-4--------|-4--------|-4p0-----4--|----------|
|-2--5--4--|-2--5--4--|-----3p0-2--|-5--4--2--|
|----3--2--|----3--2--|------------|-3--2--0--|


  N.CF#5G5   F#5B5 G5   F#5N.C.      B5 G5 F#5
                                    4/4
  Q  Q  Q    Q  Q  Q    Q  E E E E   Q  Q  Q  Q
|----------|----------|------------|-------------*|
|-5--------|----------|------------|-------------*|
|-8--------|----------|------------|-------------*|
|----------|----4-----|----4p0-----|-4-----------*|
|----4--5--|-4--2--5--|-4------3p0-|-2--5--4-----*|
|----2--3--|-2-----3--|-2----------|----3--2-----*|





Comments


Popular Bled tabs & chords
Ok But This Is How It Really Happened Bass Tabs
Red Wedding Bass Tabs
Spitshine Sonata Bass Tabs
Antarctica Intro Tabs
Asleep On The Frontlines Intro Tabs
Daylight Bombings Intro Tabs
Hotel Coral Essex Tabs
Last American Cowboy Intro Tabs
Last American Cowboy Intro 1 Tabs
Spitshine Sonata Tabs


Song lyrics



↑ Back to top | Tablatures and chords are parodies/interpretations of the original songs. You may use it for private study, scholarship, research or language learning purposes only
© 2014 AZChords.com Contact us | Privacy policy | DMCA | Add/correct tabs | Request tabs | Top 50 tabs