>
 >
Heaven And Hell

Heaven And Hell Bass Tabs

Black Sabbath - Heaven And Hell chords, tabs, tablatures, lyrics

Guitar lessons | Add/correct | Request | Top 50 tabs Artists:  A B C D E F G H I J K L M N O P Q R S T U V W X Y Z 0-9

Heaven And Hell Bass Tabs – Black Sabbath

CD, Sheet music, Poster

Do you like Heaven And Hell? Share with your friends now
Bass TabsBass Tabs v2Bass Tabs v3Bass Tabs v4Drum TabsTabsTabs v2
Black Sabbath
Heaven and Hell
bass tab

tune down
half step

  0.00         theme 1           t:90
|----------------|----------------|----------------|----------97----|
|----------------|----------------|----------------|7-----------97--|
|7---7---9---10\-|3---3---3/5--5--|7---7-779---10--|--X97---7-----X9|
|----------------|----------------|----------------|----------------|

|----------------|----------------|----------------|----------------|
|----------------|----------------|----------------|7---------------|
|7---7---9---10\-|3--------.5--.55|7-------9---10--|--X97---7-77--57|
|----------------|----------------|----------------|------------57--|

  0.22         verse 1
|----------------|----------------|----------------|----------------|
|----------------|----------------|----------------|----------------|
|7-777=777=777=77|7=777=777=777=77|7=777=777=777=77|7=777=777=777=77|
|----------------|----------------|----------------|----------------|

|----------------|----------------|----------------|--------------79|
|----------------|----------------|----------------|------------79--|
|7=777=777=777=77|7=777=777=777=77|7=777=777=777=77|7=777=777=77----|
|----------------|----------------|----------------|----------------|

|----------------|----------------|----------------|----------------|
|----------------|----------------|----------------|------------7---|
|7=777=777=777=77|7=777=777=777=77|7=777=777=777=77|7=777=777=77-X97|
|----------------|----------------|----------------|----------------|

  0.55         chorus 1
|----------------|----------------|
|--------X-------|----------------|
|----X-------X97-|----------------|
|8-----8---88---8|X-X-X-X-X-XXX-X-|

|----------------|----------------|----------------|----------------|
|----------------|----------------|----------------|----------------|
|7=7=7=7=7=777=77|7=777=777=777=77|7=777=777=777=77|7=777=777=777=77|
|----------------|----------------|----------------|----------------|

  1.11         verse 2
|----------------|----------------|
|----------------|----------------|
|7=777=777=777=77|7=777=777=777=77|
|----------------|----------------|

|----------------|----------------|----------------|--------------79|
|----------------|----------------|----------------|------------79--|
|7=777=777=777=77|7=777=777=777=77|7=777=777=777=77|7=777=777=77----|
|----------------|----------------|----------------|----------------|

|----------------|----------------|----------------|----------------|
|----------------|----------------|----------------|------------7---|
|7=777=777=777=77|7=777=777=777=77|7=777=777=777=77|7=777=777=77-X97|
|----------------|----------------|----------------|----------------|

  1.39         chorus 2
|----------------|----------------|----------------|----------------|
|----------------|------------7---|----------------|----------------|
|----X---X---X97-|-------------X7X|--------X---X97-|----------------|
|8-----8--88----8|X---X-X-X-X-----|8---8-8---88---8|X---X-X-X-XXX-X-|

|----------------|----------------|
|------------7---|----------------|
|-------------X79|----------------|
|88--8-8-88------|X--XX---XXXXXXX-|
  
  1.55         theme 2
|----------------|----------------|----------------|----------97----|
|----------------|----------------|----------------|7-----------97--|
|7---7---9---10--|3---3-----5--5--|7-------9---10--|--X97---7-----X9|
|----------------|----------------|----------------|----------------|

|----------------|----------------|----------------|----------------|
|----------------|----------------|----------------|7---------------|
|7-------9---10--|---------.5--.5-|7-------9---10--|--X97---7-7-10--|
|----------------|8---------------|----------------|----------------|

  2.17         bridge 1
|----------------|----------------|----------------|----------------|
|----------14-\--|----------------|------12----12--|----------------|
|12--------------|--------------XX|12--------12--12|10--X-XXX-X-XXTT|
|----------------|10----X---X-X---|----------------|----------------|

|----------------|----------------|----------------|----------------|
|9-----9---9---9-|----------------|----------------|----------------|
|---------------X|--------------TT|12----T---T-T---|T-TTT-T-.TT-TTT-|
|----------------|10----10--X-X---|----------------|----------------|

  2.38         verse 3
|----------------|----------------|----------------|----------------|
|----------------|----------------|----------------|----------------|
|7=777=777=777=77|7=777=777=777=77|7=777=777=777=77|7=777=777=777=77|
|----------------|----------------|----------------|----------------|

|----------------|----------------|----------------|----------------|
|----------------|----------------|----------------|----------------|
|7=777=777=777=77|7=777=777=777=77|7=777=777=777=77|7=777=777=777=77|
|----------------|----------------|----------------|----------------|

|----------------|----------------|----------------|----------------|
|----------------|----------------|----------------|----------------|
|7=777=777=777=77|7=777=777=777=77|7=777=777=777=77|7=777=777=777=7\|
|----------------|----------------|----------------|----------------|

|----------------|----------------|----------------|
|----------------|----------------|----------------|
|3--.3---5--.5---|7-777=777=777=77|7=777=777=777=77|
|----------------|----------------|----------------|

  3.18         solo
|----------------|--------------79|----------------|----------------|
|----------------|------------79--|----------------|----------------|
|7=777=777=777=77|7=777=777=77----|7=777=777=777=77|7=777=777=777=77|
|----------------|----------------|----------------|----------------|

|----------------|----------------|----------------|----------------|
|----------------|----------------|----------------|----------------|
|7=777=777=777=77|7=777=777=77X97-|7=777=777=777=77|7=777=777=777=77|
|----------------|---------------X|----------------|----------------|

|----------------|--------------79|----------------|---------------^|
|----------------|------------79--|----------------|------------5457|
|7=777=777=777=77|7=777=777=77----|7=777=777=777=77|7=777=777=77----|
|----------------|----------------|----------------|----------------|

|----------------|----------------|----------------|----------------|--------|
|-^--------------|----------------|----------------|----------------|--------|
|57777=777=777=77|7=777=777=777=77|7=777=777=777=7.|7=777=777=777=7-|7-7-10--|
|----------------|----------------|----------------|----------------|--------|

  4.02
|----------------|----------------|----------------|----------------|----------
|------14--F-F--\|----------------|------12----12--|----------------|------------
|12--------------|--------------XX|12--------12--12|10----10--XXX-X-|7-------------
|----------------|10----10--X-X---|----------------|----------------|----------------|
  


  4.17          t://100
|----------------|----------------|----------------|----------------|
|----------------|----------------|-^-^-^-^-^-^-^-^|-^-^-^-^-^-^-^-^|
|----------------|----------------|5757575757575757|5757575757575757|
|----------------|----------------|----------------|----------------|

|----------------|----------------|----------------|----------------|
|----------------|----------------|----------------|----------------|
|5757575757575757|5757575757575757|5757575757575757|5757575757575757|
|----------------|----------------|----------------|----------------|

|----------------|----------------|----------------|----------------|
|----------------|----------------|----------------|----------------|
|5757575757575757|5757575757575757|5757575757575757|5757575757575757|
|----------------|----------------|----------------|----------------|

  4.45         verse 4
|----------------|----------------|----------------|--------FTETE-E-|
|----------------|----------------|----------------|-------------F-F|
|7-777-7-777-777-|999-9-9-9-9-999.|XXX-XXX-XXX-XXX-|TTTTTTT---------|
|----------------|----------------|----------------|----------------|

|----------------|----------------|
|----------------|----------------|
|----------------|999999999999999-|
|T-TTT-T-TTT-TTT-|----------------|

|----------------|------------FTET|T-T-TTT-TTTT-TT.|F-FF--F-FTE-ETE-|
|----------------|----------------|----------------|----------------|
|7---7---7777777-|9999999-999-----|----------------|----------------|
|----------------|----------------|----------------|----------------|

|----------------|----------------|
|FFFFFFFFFFFFFFF-|----------------|
|----------------|9999999-9999999-|
|----------------|----------------|

|----------------|------------FTET|TTT-TTT-TTTTTTT-|FFFFFFF-FTETE-E-|
|----------------|----------------|----------------|-------------F-T|
|7-7-777-7777777-|9-999999999-----|----------------|----------------|
|----------------|----------------|----------------|----------------|

|----------------|EEE-EEE-EEEE-EEE|TTTT-TT-TTTTTTTT|FFFFFFF-FTETE-E-|
|FFF-FFF-FFFF-FF-|----------------|----------------|-------------F-T|
|----------------|----------------|----------------|----------------|
|----------------|----------------|----------------|----------------|

  5.32
|----------------|EEEEEEE-EEEE-EE-|T-T-TTTTTTTT-TT-|FFFF-FF---FF-FF\|
|FFF-FFFFFFFF-FFF|----------------|----------------|----------------|
|----------------|----------------|----------------|----------------|
|----------------|----------------|----------------|----------------|

|9-99-99---99-99-|EEE-EEE-EEEEEEE-|TTTT-TT-TTTTTTT-|FFFF-FF-FFFFFFF-|
|----------------|----------------|----------------|----------------|
|----------------|----------------|----------------|----------------|
|----------------|----------------|----------------|----------------|

|----------------|----------------
|----------------|------------
|----------------|--------
|12-^^-----------|----
  


standard tuning (EADG)

| /  slide up
| \  slide down

| .   incidental note (usually open string)
| ^   pre-struck note (hammer-on, pull-off)
| =   rest

| X   10
| E   11
| T   12
| H   13
| F   14


display in fixed-width font
one space ("-") = 1/16 note

spaceyhippie
dudeman.net/jam





Comments


Popular Black Sabbath tabs & chords
Changes Bass Tabs
Cornucopia Bass Tabs
Anno Mundi Tabs
Children Of The Grave 1 Tabs
Crazy Train 1 Tabs
F X Tabs
Iron Man 1 Tabs
Iron Man 15 Tabs
Planet Caravan 2 Tabs
Psycho Man Tabs


Song lyrics



↑ Back to top | Tablatures and chords are parodies/interpretations of the original songs. You may use it for private study, scholarship, research or language learning purposes only
© 2014 AZChords.com Contact us | Privacy policy | DMCA | Add/correct tabs | Request tabs | Top 50 tabs