» » »

Stormy High Tabs (ver.2)

Artists:  A B C D E F G H I J K L M N O P Q R S T U V W X Y Z # 

Stormy High Tabs (ver.2)

Black Mountain
Rating:
0/5 (0 votes)

Hard to play? Try these video lessons and learn fast.
                x-----------------0------------------------------------------|
x----1----3---1---1------------------------------------------|
x---2-2----2---2--2--------------------------------------0---|
x--2---2----2---2-2----------------2-0--0-2-----2-0--0-2---2-|  (x5)
x-0-----0---------0-------------------2------------2---------|
x---------------------------7/-0-0----------0-0--------------|


x------------------------------|
x------------------------------|
x--------------------------2---|
x-----4-2--2-4-----4-2--2-4--4-| (x2)
x--------4------------2--------|
x-2-2----------2-2-------------|

x-----------------------------------|
x-----------------------------------|
x-------------------------------0---|
x---------2-0--0-2-----2-0--0-2---2-|  (x2)
x------------2------------2---------|
x--7/-0-0----------0-0--------------|

x------------0--------|
x------------0--------|
x----1----1--1--1-----|
x----2----2--2--2-----|  (repeat a lot)
x----2----2--2--2-----|
x----0----0-----0-----|

Verse:

x----------|
x----------|
x----------|
x--2-4-4---| (x8)
x--2-4-4---|
x--0-2-2---|

x------------0--------|
x------------0--------|
x----1----1--1--1-----|
x----2----2--2--2-----|  (repeat a lot)
x----2----2--2--2-----|
x----0----0-----0-----|
            
Hard to play? Try these video lessons and learn fast. | Correct




comments powered by Disqus
↑ Back to top | Tablatures and chords are parodies/interpretations of the original songs. You may use it for private study, scholarship, research or language learning purposes only