>
 >
Fayre Thee Well

Fayre Thee Well Guitar Tabs

Blackmores Night - Fayre Thee Well chords, tabs, tablatures, lyrics

Guitar lessons | Add/correct | Request | Top 50 tabs Artists:  A B C D E F G H I J K L M N O P Q R S T U V W X Y Z 0-9

Fayre Thee Well Guitar Tabs – Blackmores Night

CD, Sheet music, Poster

Do you like Fayre Thee Well? Share with your friends now
TabsTabs v2
++++++++++++++++++++++++++++++++++++++
| Blackmore's Night- Fayre Thee Well |
++++++++++++++++++++++++++++++++++++++


Tuning: EADGBe



1.
e|-2/4-5-7~-5~-0~--2-0-----------------------------2-0~----|
B|---------------------3-2-0~--2-3-2\1-0----0-2-3~---------|
G|---------------------------------------2~----------------|
D|---------------------------------------------------------|
A|---------------------------------------------------------|
E|---------------------------------------------------------|

2.
e|-2/4-5-7~-5~-0~--2-0----------------0~-7~-5h7-4-----0~------|
B|---------------------3-2-0~--2-3-2--------------------------|
G|------------------------------------------------2~----------|
D|------------------------------------------------------------|
A|--------------------------------------------------------0~--|
E|------------------------------------------------------------|

3.
e|-9h10-12~--10p9-7h9-10~--9p7-5h7-9~--7-5-4h5-4h5-2-0~--|
B|-------------------------------------------------------|
G|-------------------------------------------------------|
D|-------------------------------------------------------|
A|-------------------------------------------------------|
E|-------------------------------------------------------|

4.
e|-2-4-5-4h5-2-5-0~------------------------------------------0~--7-4h5p4-2-4-0---------|
B|-------------------2~--3-2h3-0-3-2~--3-2h3-0-3-2~------0~--------------------0-------|
G|---------------------------------------------------2~--------------------------------|
D|-------------------------------------------------------------------------------2-----|
A|-------------------------------------------------------------------------------------|
E|---------------------------------------------------------------------------------4~--|

5.
e|-2/4-5-7~-5~-0~--2-0-----------------------------2-0~----|
B|---------------------3-2-0~--2-3-2\1-0----0-2-3~---------|
G|---------------------------------------2~----------------|
D|---------------------------------------------------------|
A|---------------------------------------------------------|
E|---------------------------------------------------------|

6.
e|-2/4-5-7~-5~-0~--2-0----------------0~-7~-5h7-4-----0~------|
B|---------------------3-2-0~--2-3-2--------------------------|
G|------------------------------------------------2~----------|
D|------------------------------------------------------------|
A|--------------------------------------------------------0~--|
E|------------------------------------------------------------|

7.
e|-1h2-4-5-2~--7-4h5-0---------------------2-0---------|
B|---------------------0-2~--3-2h3-0-3-2~------3-2-0~--|
G|-----------------------------------------------------|
D|-----------------------------------------------------|
A|-----------------------------------------------------|
E|-----------------------------------------------------|

8.
e|-1h2-4-2~--4h5-7---9~--8h9-11---12p11-9~--11h12-14----12~--14-16~--17-19~--|
B|-----------------5------------9--------------------12----------------------|
G|---------------------------------------------------------------------------|
D|---------------------------------------------------------------------------|
A|---------------------------------------------------------------------------|
E|---------------------------------------------------------------------------|

9.
e|-2/4-5-7~-5~-0~--2-0-----------------------------2-0~----|
B|---------------------3-2-0~--2-3-2\1-0----0-2-3~---------|
G|---------------------------------------2~----------------|
D|---------------------------------------------------------|
A|---------------------------------------------------------|
E|---------------------------------------------------------|

10.
e|-2/4-5-7~-5~-0~--2-0----------------0~-7~-5h7-4-----0~------|
B|---------------------3-2-0~--2-3-2--------------------------|
G|------------------------------------------------2~----------|
D|------------------------------------------------------------|
A|--------------------------------------------------------0~--|
E|------------------------------------------------------------|

11.
e|-9h10-12~--10p9-7h9-10~--9p7-5h7-9~--7-5-4h5-4h5-2-0~--|
B|-------------------------------------------------------|
G|-------------------------------------------------------|
D|-------------------------------------------------------|
A|-------------------------------------------------------|
E|-------------------------------------------------------|

12.
e|-2-4-5-4h5-2-5-0~------------------------------------------0~--7-4h5p4-2-4-0---------|
B|-------------------2~--3-2h3-0-3-2~--3-2h3-0-3-2~------0~--------------------0-------|
G|---------------------------------------------------2~--------------------------------|
D|-------------------------------------------------------------------------------2-----|
A|-------------------------------------------------------------------------------------|
E|---------------------------------------------------------------------------------4~--|

13.
e|-9-10-12----10-14-12~--12-10-9~--9-7-5~--7-9-10-9-7h9-5-4~--|
B|---------10-------------------------------------------------|
G|------------------------------------------------------------|
D|------------------------------------------------------------|
A|------------------------------------------------------------|
E|------------------------------------------------------------|

14.
e|-14-16-17--17p16-16p14-12--14-12h14-10-9-7~--9-10-9h10-5~--7-5h7-4-5~---*12--17~--|
B|----------------------------------------------------------------------------------|
G|----------------------------------------------------------------------------------|
D|----------------------------------------------------------------------------------|
A|----------------------------------------------------------------------------------|
E|----------------------------------------------------------------------------------|



+++++++++++++++++++++++++++++++++
| RaiLeff                       |
+++++++++++++++++++++++++++++++++





Comments


Popular Blackmores Night tabs & chords
Castles And Dreams Bass Tabs
Avalon Chords
Christmas Eve Chords
Loreley Chords
Olde Village Lanterne Chords
Nur Eine Minute Tabs
Under A Violet Moon Tabs
Hanging Tree Ukulele
Home Again Ukulele
Renaissance Faire Ukulele


Song lyrics



↑ Back to top | Tablatures and chords are parodies/interpretations of the original songs. You may use it for private study, scholarship, research or language learning purposes only
© 2014 AZChords.com Contact us | Privacy policy | DMCA | Add/correct tabs | Request tabs | Top 50 tabs