» » »

Black Dahlia Murder, When The Last Grave Has Emptied Tabs (ver.2)

Artists:  A B C D E F G H I J K L M N O P Q R S T U V W X Y Z # 

When The Last Grave Has Emptied Tabs (ver.2)

Black Dahlia Murder Tabs
 Rating:
4/5 (4 votes)
When The Last Grave Has Emptied lessons Tabs too difficult? Try these video lessons and learn fast
1
                 -------------------------------------------------------------------------------
           When The Last Grave Has Emptied - The Black Dahlia Murder
-------------------------------------------------------------------------------

Sory about no Harmonies or solo... 
Should be correct, i hope.
Please rate and leave comments.
Thanks.

Tuning:Drop C

Riff 1 (0:00)
|---------------------------------------------------------------------------|
|---------------------------------------------------------------------------|
|---------------------------------------------------------------------------| X4
|---------------------------------------------------------------------------|
|-----4-5-----7-8---5-7------4-5-----555-111-4------------------------------|
|-0-0-----0-0-----0------0-0-----0-0----------------------------------------|


Riff 2 (0:18)
|---------------------------------------------------------------------------|
|---------------------------------------------------------------------------|
|---------------------------------------------------------------------------|
|---------------------------------------------------------------------------|X2
|--------------------------------------------5h8p5-4h7p4-5h8p5-4h7p4--------|
|----00-0-8-7-8p0-00-0-7-6-7p0-00-0-8-7-8p0---------------------------------|
     .. . . . .   .. . . . .   .. . . . .

Riff 3 (0:26)
|---------------------------------------------------------------------------|
|---------------------------------------------------------------------------|
|---------------------------------------------------------------------------|
|-------5h8p5-4h7p4------5h8p5-4h7p4------5h8p5-4h7p4------5h8p5-7h10p7-----|
|---------------------------------------------------------------------------|
|--55-5-------------55-5-------------55-5-------------55-5------------------|
   .. .             .. .             .. .             .. .

Riff 3 Cont.
|---------------------------------------------------------------------------|
|---------------------------------------------------------------------------|
|---------------------------------------------------------------------------|
|---------------------------------------------------------------------------|
|------5h8p5-4h7p4------5h8p5-4h7p4------5h8p5-4h7p4------5h8p5-7h10p7------|
|-00-0-------------00-0-------------00-0-------------00-0-------------------|
  .. .             .. .             .. .             .. .

Riff 3 cont.
|---------------------------------------------------------------------------|
|---------------------------------------------------------------------------|
|---------------------------------------------------------------------------|
|------5h8p5-4h7p4------5h8p5-4h7p4------5h8p5-4h7p4-5h8p5-4h7p4-5h8p5-4h7p4|
|---------------------------------------------------------------------------|
|-55-5-------------55-5-------------55-5------------------------------------|


Riff 4 (0:39)
|---------------------------------------------------------------------------|
|---------------------------------------------------------------------------|
|---------------------------------------------------------------------------| X3
|---------------------------------------------------------------------------|
|-444-555-000-777-888-000-777-555-101010-888-777----------------------------|
|---------------------------------------------------------------------------|
                                      ^
                                    Tens
Then
|---------------------------------------------------------------------------|
|---------------------------------------------------------------------------|
|---------------------------------------------------------------------------|
|---------------------------------------------------------------------------|
|-444-555-000-777-888-000-777-555-101010-888-121212-------------------------|
|---------------------------------------------------------------------------|
                                                   ^
                                                Twelves

Riff 1 (0:52)
|---------------------------------------------------------------------------|
|---------------------------------------------------------------------------|
|---------------------------------------------------------------------------| X4
|---------------------------------------------------------------------------|
|-----4-5-----7-8---5-7------4-5-----555-111-4------------------------------|
|-0-0-----0-0-----0------0-0-----0-0----------------------------------------|


Riff 5 (1:09)
|---------------------------------------------------------------------------|
|---------------------------------------------------------------------------|
|---------------------------------------------------------------------------|X4
|-----------------7p5-3-2--------10-8-7-------------------------------------|
|----4-5----7-8--------------7-8---------10-8-7-8-10-12---------------------|
|-00-----00---------------00------------------------------------------------|

Riff 2 (1:26) 2 times
Riff 3 (1:34)
Riff 4 (1:47) 4 times 

Solo
|---------------------------------------------------------------------------|
|---------------------------------------------------------------------------|
|--12-14-14-12-10-12-10-9-10-9-7-9-7-77----7-9-10-9-10-10/12-10~------------|
|---------------------------------------------------------------------------|
|---------------------------------------------------------------------------|
|---------------------------------------------------------------------------|

|---------------------------------------------------------------------------|
|---------------------------------------------------------------------------|
|-7-9-10-12-10-9-7-9-10-12-10-9-9-11-12-14-12-11-9-11-12-14-12-11--14~15-14~|
|---------------------------------------------------------------------------|
|---------------------------------------------------------------------------|
|---------------------------------------------------------------------------|

Part of solo (2:13)
|---------------------------------------------------------------------------|
|---------------------------------------------------------------------------|
|---------------------------------------------------------------------------|X2
|---------------------------------------------------------------8/7---5/7---|
|-----8-10-12-10-8----7-8----8-10----8-10-12-10-8---8/7---5/7-------0-------|
|--00--------------00-----00------00--------------0-----0-----0-------------|

Riff 6 (2:26)
|---------------------------------------------------------------------------|
|---------------------------------------------------------------------------|
|---------------------------------------------------------------------------|X8
|---------------------------------------------------------------------------|
|-------5h8p5------5h8p5-4h7p4----------------------------------------------|
|--00-0-------00-0----------------------------------------------------------|

Riff 3 (2:43)
Riff 4 (2:55) X4

End Yey!



| /  slide up
| \  slide down
| h  hammer-on
| p  pull-off
| ~  vibrato
| +  harmonic
| .  Mute note
===============================================================================
            
Submit corrections

comments powered by Disqus
↑ Back to top | Black Dahlia Murder Tabs for When The Last Grave Has Emptied. Lyrics for acoustic guitar and electric guitar. 1 Tablatures and chords are parodies/interpretations of the original songs. You may use it for private study, scholarship, research or language learning purposes only