>
 >
Circles

Circles Guitar Tabs

Birds Of Tokyo - Circles chords, tabs, tablatures, lyrics

Guitar lessons | Add/correct | Request | Top 50 tabs Artists:  A B C D E F G H I J K L M N O P Q R S T U V W X Y Z 0-9

Circles Guitar Tabs – Birds Of Tokyo

CD, Sheet music, Poster

Do you like Circles? Share with your friends now
TabsTabs v2
Birds of Tokyo - Circles


Intro + Verse
e|-------------------------------------------------------------------------|
B|-----10-----10------10------10------10------10-----10-----10-------------|
G|--7------7-------7-------7-------7-------7-------7-----7-----------------|
D|-------------------------------------------------------------------------|
A|-------------------------------------------------------------------------|
E|-------------------------------------------------------------------------|

e|-------------------------------------------------------------------------|
B|-----8------8------8------8------8------8-----8-----8--------------------|
G|--10-----10-----10-----10-----10-----10----10----10----------------------|
D|-------------------------------------------------------------------------|
A|-------------------------------------------------------------------------|
E|-------------------------------------------------------------------------|

e|-------------------------------------------------------------------------|
B|-----5------5------5------5------5------5-----5-----5--------------------|
G|---5------5------5------5------5------5-----5-----5----------------------|
D|-------------------------------------------------------------------------|
A|-------------------------------------------------------------------------|
E|-------------------------------------------------------------------------|

e|-------------------------------------------------------------------------|
B|-----11------11------11------11------11------11-----11-----11------------|
G|---12------12------12------12------12------12-----12-----12--------------|
D|-------------------------------------------------------------------------|
A|-------------------------------------------------------------------------|
E|-------------------------------------------------------------------------|

Verse Variations
e|-------------------------------------------------------------------------|
B|-----10-----10------10------10------10------10-----11-----11-------------|
G|--7------7-------7-------7-------7-------7-------7-----7-----------------|
D|-------------------------------------------------------------------------|
A|-------------------------------------------------------------------------|
E|-------------------------------------------------------------------------|

and

e|-------------------------------------------------------------------------|
B|-----11------11------11------11------11------13-----13-----13------------|
G|---12------12------12------12------12------12-----12-----12--------------|
D|-------------------------------------------------------------------------|
A|-------------------------------------------------------------------------|
E|-------------------------------------------------------------------------|

Chorus (Palm Muted)
e|-------------------------------------------------------------------------|
B|-------------------------------------------------------------------------|
G|--7-----------2---------5---------3--------5-----------------------------|
D|--7--x(16)----3--x(16)--5--(x16)--5--(x9)--5-(x7)------------------------|
A|--5-----------3---------3---------5--------5-----------------------------|
E|-------------------------------------------------------------------------|

Solo
e|---------------------------------------8-8------10-10-10-----------------|
B|---------------------------8------10-----------------------10/11\10------|
G|----------------7---7/9--------------------------------------------------|
D|---5/7--7----------------------------------------------------------------|
A|-------------------------------------------------------------------------|
E|-------------------------------------------------------------------------|

e|--10-12-12-10------------------------------------------------------------|
B|--------------10----10/11\10--8--------8------8------8------8------------|
G|-----------------------------------7------7------7------7----------------|
D|-------------------------------------------------------------------------|
A|-------------------------------------------------------------------------|
E|-------------------------------------------------------------------------|

Verse 3
e|----------------------------8-8-8-8/10-----------------------------------|
B|----------11-11-11-11\10-------------------------------------------------|
G|---7---------------------------------------------------------------------|
D|-------------------------------------------------------------------------|
A|-------------------------------------------------------------------------|
E|-------------------------------------------------------------------------|

e|--10------10-10-10-10/12-------------------10-10-10-10-10-10-10-10-10\\\-|
B|-------------------------------------------------------------------------|
G|-------------------------------------------------------------------------|
D|-------------------------------------------------------------------------|
A|-------------------------------------------------------------------------|
E|-------------------------------------------------------------------------|

Chorus x 2

Final Chorus
e|-------------------------------------------------------------------------|
B|-----------------------------------------------------13-13-13-13-15(x32)-|
G|-7-(x32)--5-(x16)--7-(x12)--9(x4)--12(x16)--14(x12)----------------------|
D|-------------------------------------------------------------------------|
A|-------------------------------------------------------------------------|
E|-------------------------------------------------------------------------|

e|-------------------------------------------------------------------------|
B|-------------------------------------------------------------------------|
G|-------------------------------------------------------------------------|
D|-------------------------------------------------------------------------|
A|--10-(x128)--------------------------------------------------------------|
E|-------------------------------------------------------------------------|

Outro
e|-------------------------------------------------------------------------|
B|------10--------10---------8--------8--------5------5---------11------11-|
G|--7--------7---------10--------10--------5------5---------12------12-----|
D|-------------------------------------------------------------------------|
A|-------------------------------------------------------------------------|
E|-------------------------------------------------------------------------|





Comments


Popular Birds Of Tokyo tabs & chords
The Dark Side Of Love Bass Tabs
Armour For Liars Chords
Plans 1 Chords
Rose Accoustic Chords
Broken Bones Tabs
Murmurs Tabs
Silhouettic 1 Tabs
Silhouettic 3 Tabs
Violet Tabs
Broken Bones Ukulele


Song lyrics



↑ Back to top | Tablatures and chords are parodies/interpretations of the original songs. You may use it for private study, scholarship, research or language learning purposes only
© 2014 AZChords.com Contact us | Privacy policy | DMCA | Add/correct tabs | Request tabs | Top 50 tabs