» » »

Big D And The Kids Table, Steady Riot Bass tabs (ver.1)

Artists:  A B C D E F G H I J K L M N O P Q R S T U V W X Y Z # 

Steady Riot Bass tabs (ver.1)

Big D And The Kids Table Tabs
 Rating:
3.8/5 (5 votes)
Steady Riot lessons Tabs too difficult? Try these video lessons and learn fast
                Big D and the Kids Table
Strictly Rude

Intro/Bridge:
------------------------------2---------|
--------------------------------2-------|
---0-0-0----0-0-0----0-0-0--------2-2---|
----------------------------------------|

Verse:
---------------2-2-1-1---------------|
-------0-0-4-4---------2-2-0-0-------|
---2-2-------------------------4-4---|
-------------------------------------|


---------------2-2-1-1-----1-1-4-4---|
-------0-0-4-4---------2-2-----------|
---2-2-------------------------------|
-------------------------------------|


---------------2-2-1-1---------------|
-------0-0-4-4---------2-2-0-0-------|
---2-2-------------------------4-4---|
-------------------------------------|


-------------------------------------|
-----------0-0-0-0-4-4-4-4-2-2-0-0---|
---2-2-2-2---------------------------|
-------------------------------------|


Chorus:
------------------------4-4-4-4-------------------------|
---------2-2-2-2-0----0---------0-0-0-0-0-0-0-0-2-------|
--0----0------------------------------------------4-2---|
--------------------------------------------------------|
            
Submit corrections

comments powered by Disqus
↑ Back to top | Big D And The Kids Table Bass for Steady Riot. Lyrics for acoustic guitar and electric guitar. Tablatures and chords are parodies/interpretations of the original songs. You may use it for private study, scholarship, research or language learning purposes only