» » »

Bibio, Lovers Carvings Tabs (ver.1)

Artists:  A B C D E F G H I J K L M N O P Q R S T U V W X Y Z # 

Lovers Carvings Tabs (ver.1)

Bibio Tabs
 Rating:
4/5 (4 votes)
Lovers Carvings lessons Tabs too difficult? Try these video lessons and learn fast
                			     Lovers' Carvings - Bibio

Tuning: DGDGBD

main guy:
      3 times
D|------------------------4p0------------------------------------------------|
B|---0-0---1-1---0-0---1-1---------------------------------------------------|
G|--0-0-0-0-0-0-0-0-0-0-0-0--------------------------------------------------|
D|-------2-----------2-------------------------------------------------------|
G|-0-----------0------------0-ect--------------------------------------------|
D|---------------------------------------------------------------------------|
with this once
D|---------------------------------------------------------------------------|
B|---0-0---1-1---0--0h1-0----------------------------------------------------|
G|--0-0-0-0-0-0-0-0-0---0----------------------------------------------------|
D|-------2----------0h2------------------------------------------------------|
G|-0-----------0--------0----------------------------------------------------|
D|---------------------------------------------------------------------------|

then:
D|------------0-----------0--------------------------------------------------|
B|----7-7---8-----7-7---8----------------------------------------------------|
G|----5-5---5-----5-5---5----------------------------------------------------|
D|----5-5---5-----5-5---5----------------------------------------------------|
G|--5-----5-----5-----5------------------------------------------------------|
D|---------------------------------------------------------------------------|

play the main guy again

then: (here's where the tab starts to become more of a skeleton than gospel.
there are two guitars playing such similar notes with so many reverb and
echo effects that it doesn't much matter to get it exact, and i'm not gonna
tab the second guitar. this is both condensed. but this is pretty pretty)
      3 times
D|-----7--7---7--9p5-5--5----------------------------------------------------|
B|-7h8--8-7--7-7-0----0-0----------------------------------------------------|
G|-5--5---5-5----0------0----------------------------------------------------|
D|-5------5------0--0--------------------------------------------------------|
G|-0-------------------------------------------------------------------------|
D|---------------------------------------------------------------------------|

then:
       3 times
D|---------------------------------------------------------------------------|
B|---0-0---1-1---3-3-1-0-0---------------------------------------------------|
G|--0-0-0-0-0-0-0-0-0-0-0-0--------------------------------------------------|
D|-------2----/4-----2-------------------------------------------------------|
G|-0-------------------------------------------------------------------------|
D|---------------------------------------------------------------------------|

then:
D|---------------------------------------------------------------------------|
B|----7--7--------7--7-7/8\7-------------------------------------------------|
G|---7-7--7---7--7-7--7-----7------------------------------------------------|
D|--7---7--7-7--5---5--------------------------------------------------------|
G|-7--------7--5-------------------------------------------------------------|
D|---------------------------------------------------------------------------|

then the main guy 4 times again

now for part two, in the same tuning, for the sake of consistency. i just
translated this part from another tab on the internet, by "benoblest".

repeat these two lines over and over
D|-9-12--------12-14-10-----9-7-5-----2-5------------------------------------|
B|------12--------------------------------3----------------------------------|
G|-9-11-12-----12-11--9-----7-5-4-----2-4------------------------------------|
D|----------------------------------------5----------------------------------|
G|---------------------------------------------------------------------------|
D|---------------------------------------------------------------------------|

D|-9-12--------12-14-10-10p9-9-7-5-----2-5-----------------------------------|
B|------12---------------------------------3---------------------------------|
G|-9-11-12-----12-11--9------7-5-4-----2-4--------0--------------------------|
D|-----------------------------------------5---0h2---------------------------|
G|---------------------------------------------------------------------------|
D|---------------------------------------------------------------------------|

near the end a really sick second guitar comes in, quick finger pickin:
D|--9--12--9----12--9--12-14--10----10-10---2--5---5---7--5---2--5---5---7--5-|
B|---8---8------8---8---12-12-10----12-10----1--0--3---3--3----1--0--3---3--3-|
G|-9--9---9-----9--9-/12-12-12-9----9-9----2--2--0-4---4-4---2--2--0-4---4--4-|
D|-------------------------------------------------------------------5---5-5--|
G|----------------------------------------------------------------------------|
D|----------------------------------------------------------------------------|

D|--9--12--9----12--9--14-12--10----10-10---2--5---5---7--5---2--5---5---7--5-|
B|---8---8------8---8---12-12-10----12-10----1--0--3---3--3----1--0--3---3--3-|
G|-9--9---9-----9--9-/12-12-12-9----9-9----2--2--0-4---4-4---2--2--0-4---4--4-|
D|-------------------------------------------------------------------5---5-5--|
G|----------------------------------------------------------------------------|
D|----------------------------------------------------------------------------|
so that's about it. overall it isn't that great of a tab in terms of
"exactness" or "accuracy". this probably isn't exactly what the dude is
playing for some of it, but it sounds pretty sick, and the harmony is right,
so it doesn't really make a difference.

enjoy. good, fun tune.

************************************

| /   slide up
| \   slide down
| h   hammer-on
| p   pull-off
| ~   vibrato
| +   harmonic
| x   Mute note
| b   Bend
| pb  Pre-bend
| br  Bend release
| pbr Pre-bend release
| brb Bend release bend

************************************
            
Submit corrections

comments powered by Disqus
↑ Back to top | Bibio Tabs for Lovers Carvings. Lyrics for acoustic guitar and electric guitar. Tablatures and chords are parodies/interpretations of the original songs. You may use it for private study, scholarship, research or language learning purposes only