>
 >
Halo

Halo Guitar Tabs

Beyonce Knowles - Halo chords, tabs, tablatures, lyrics

Guitar lessons | Add/correct | Request | Top 50 tabs Artists:  A B C D E F G H I J K L M N O P Q R S T U V W X Y Z 0-9

Halo Guitar Tabs – Beyonce Knowles

CD, Sheet music, Poster

Do you like Halo? Share with your friends now
ChordsChords v2Chords v3Chords v4Chords v5TabsTabs v2Tabs v3Ukulele
Intro: Played very fast as its originally on Piano
  Q    Q     Q    Q     
--9--------------------|
------------10---------|
-------9----------9----|
-----------------------|
-----------------------|
-----------------------|


  Q    Q     Q    Q     
--9--------------------|
------------10---------|
-------9----------9----|
-----------------------|
-----------------------|
-----------------------|


  Q    Q     Q    Q     
--9--------------------|
------------10---------|
-------9----------9----|
-----------------------|
-----------------------|
-----------------------|


  Q    Q    Q     Q     
--9---------7h----9----|
-----------------------|
-------9---------------|
-----------------------|
-----------------------|
-----------------------|


   Q    Q    Q    Q     
--10---------7---------|
--------7---------7----|
-----------------------|
-----------------------|
-----------------------|
-----------------------|


   Q    Q    Q    Q     
--10---------7---------|
--------7---------7----|
-----------------------|
-----------------------|
-----------------------|
-----------------------|


   Q    Q    Q    Q     
--10---------9---------|
--------7---------7----|
-----------------------|
-----------------------|
-----------------------|
-----------------------|


  Q       Q     Q    Q     
--7h----9g7---------------|
---------------10----9----|
--------------------------|
--------------------------|
--------------------------|
--------------------------|


   Q    Q    Q    Q     
-----------------------|
--10---------7---------|
--------6---------6----|
-----------------------|
-----------------------|
-----------------------|


   Q    Q    Q    Q     
-----------------------|
--10---------7---------|
--------6---------6----|
-----------------------|
-----------------------|
-----------------------|


   Q    Q    Q    Q     
-----------------------|
--10---------7---------|
--------6---------6----|
-----------------------|
-----------------------|
-----------------------|


   Q     Q     Q    Q     
-------------------------|
--10----12----10----9----|
-------------------------|
-------------------------|
-------------------------|
-------------------------|


  Q    Q    Q    Q     
----------------------|
--7---------7---------|
-------7---------7----|
----------------------|
----------------------|
----------------------|


  Q    Q    Q    Q     
----------------------|
--7---------7---------|
-------7---------7----|
----------------------|
----------------------|
----------------------|


   Q    Q    Q    Q     
-----------------------|
--10---------7---------|
--------7---------7----|
-----------------------|
-----------------------|
-----------------------|


   Q     Q     Q    Q                     
-------------------------|
--10----12----10----9----|
-------------------------|
-------------------------|
-------------------------|
-------------------------|

Chords: 
 
A                        Bm
Remember those walls I built,
                            F#m
Well baby they're tumbling down, 
                                D
And they didn't even put up a fight,
                          A
They didn't even make a sound.
                         Bm
I found a way to let you in,
                          F#m
But I never really had a doubt. 
                               D
Standing in the light of your halo, 
                A
I got my angel now. 

                      Bm
It's like I've been awakened. 
                       F#m
Every rule I had you breaking. 
                         D
It's the risk that I'm taking. 
                              A
I ain't never gonna shut you out. 

                        Bm
Everywhere I'm looking now, 
                           F#m
I'm surrounded by your embrace. 
                      D
Baby I can see your halo, 
                            A
You know you're my saving grace. 
                              Bm
You're everything I need and more, 
                            F#m
It's written all over your face. 
                      D
Baby I can feel your halo, 
                    A
Pray it won't fade away. 


                 A
I can feel your halo halo halo 
                Bm
I can see your halo halo halo 
                 F#m
I can feel your halo halo halo 
                D
I can see your halo halo halo 

This is up to the chorus and the chords continue with the same progression throughout the song.
Strum pattern- DUUDUUD
Good Luck

NB can also be played with capo on 2nd fret using basic chord shapes.
G - Instead of A
Am - Instead of Bm
Em - Instead of F#m
C - Instead of D





Comments


Popular Beyonce Knowles tabs & chords
Sweet Dreams Bass Tabs
Ave Maria 2 Chords
Disappear Chords
Ego Chords
Listen Chords
Love On Top 3 Chords
Love On Top 7 Chords
Broken Hearted Girl Tabs
Dangerously In Love Tabs
Irreplacable Tabs


Song lyrics



↑ Back to top | Tablatures and chords are parodies/interpretations of the original songs. You may use it for private study, scholarship, research or language learning purposes only
© 2014 AZChords.com Contact us | Privacy policy | DMCA | Add/correct tabs | Request tabs | Top 50 tabs