>
 >
More Of Myself To Kill

More Of Myself To Kill Guitar Tabs

Between The Buried And Me - More Of Myself To Kill chords, tabs, tablatures, lyrics

Guitar lessons | Add/correct | Request | Top 50 tabs Artists:  A B C D E F G H I J K L M N O P Q R S T U V W X Y Z 0-9

More Of Myself To Kill Guitar Tabs – Between The Buried And Me

CD, Sheet music, Poster

Do you like More Of Myself To Kill? Share with your friends now
TabsTabs v2
Tuning: (C#,F#,B,E,G#,C#)

 Key: pm = palm mute
      %  = rest
      h  = hammer on
      p  = pull off
      /  = slide up
      \  = slide down
      ^  = tremlo pick
      ph = pinch harmonic
       = natural harmonic
      b  = bend half step
      ~  = let ring



 C#|---------------------------------------------------------------------------------------------|
 G#|---------------------------------------------------------------------------------------------|
  E|--9~~-----------------------------------------------9~~--------------------------------------|
  B|--9~~9-9-9-9----------------------------------------9~~9-9-9-9-9---------7-8-10-6-7-9-5-6-8--|
 F#|--7~~9-9-9-9--6-7-6-6-6-6-6-6-6-6-6-3-3-3-3-3-3-3-3-7~~9-9-9-9-9--7-8-10---------------------|
 C#|-----7-7-7-7-------------------------------------------7-7-7-7-7-----------------------------|

 C#|----------------------------------------------------|
 G#|----------------------------------------------------|
  E|--9-9\8-8p-5--9-9\8-8p-5--9-9\8-8p-5--9-9\8-8p-5----| Play Fast
  B|----------------------------------------------------|
 F#|----------------------------------------------------|
 C#|----------------------------------------------------|

                           *Guitar 1
 C#|--------------------------------------------------------|
 G#|--------------------------------------------------------|
  E|-----------4/5\4----------------------4/5\4-------------|
  B|--6-6-6-6--4/5\4--5-5-5-5-5--6-6-6-6--4/5\4--5-5-5-5-5--|
 F#|--6-6-6-6--2/3\2--5-5-5-5-5--6-6-6-6--2/3\2--5-5-5-5-5--|
 C#|--4-4-4-4---------3-3-3-3-3--4-4-4-4---------3-3-3-3-3--|

                          *Both Guitars
 C#|----------------------------------------------------------------|
 G#|----------------------------------------------------------------|
  E|--9-9-9-9-12-12-12-12-8-8-8-8-8-8-8-8-------------------4-5-----|
  B|--9-9-9-9-12-12-12-12-8-8-8-8-8-8-8-8-------------------4-5-2-5~|
 F#|--7-7-7-7-10-10-10-10-6-6-6-6-6-6-6-6--6-7/5-6/4-5/3-4--2-3-2-5~|
 C#|------------------------------------------------------------0-3~|


 C#|--------------------------------------------------------|
 G#|--------------------------------------------------------|
  E|-----------4/5\4----------------------4/5\4-------------|
  B|--6-6-6-6--4/5\4--5-5-5-5-5--6-6-6-6--4/5\4--5-5-5-5-5--|
 F#|--6-6-6-6--2/3\2--5-5-5-5-5--6-6-6-6--2/3\2--5-5-5-5-5--|
 C#|--4-4-4-4---------3-3-3-3-3--4-4-4-4---------3-3-3-3-3--|


 C#|----------------------------------------------------------------|
 G#|----------------------------------------------------------------|
  E|--9-9-9-9-12-12-12-12-8-8-8-8-8-8-8-8-------------------4-5-----|
  B|--9-9-9-9-12-12-12-12-8-8-8-8-8-8-8-8-------------------4-5-2-5~|
 F#|--7-7-7-7-10-10-10-10-6-6-6-6-6-6-6-6--6-7/5-6/4-5/3-4--2-3-2-5~|
 C#|------------------------------------------------------------0-3~|


 C#|--------------------------------------------------------|
 G#|--------------------------------------------------------|
  E|-----------4/5\4----------------------4/5\4-------------|
  B|--6-6-6-6--4/5\4--5-5-5-5-5--6-6-6-6--4/5\4--5-5-5-5-5--|
 F#|--6-6-6-6--2/3\2--5-5-5-5-5--6-6-6-6--2/3\2--5-5-5-5-5--|
 C#|--4-4-4-4---------3-3-3-3-3--4-4-4-4---------3-3-3-3-3--|


 C#|----------------------------------------------------------------|
 G#|----------------------------------------------------------------|
  E|--9-9-9-9-12-12-12-12-8-8-8-8-8-8-8-8-------------------4-5-----|
  B|--9-9-9-9-12-12-12-12-8-8-8-8-8-8-8-8-------------------4-5-2-5~|
 F#|--7-7-7-7-10-10-10-10-6-6-6-6-6-6-6-6--6-7/5-6/4-5/3-4--2-3-2-5~|
 C#|------------------------------------------------------------0-3~|


 C#|--------------------------------|
 G#|--------------------------------|
  E|--6--5--------------------------|
  B|--6--5--3--6-5-3-2~~--2-2---2---|
 F#|--4--3--3--6-5-3-2~~--2-2---2---|
 C#|--------1--4-3-1-0~~--0-0---0---|
  pm           " " "      " "   "


 C#|------------------------------------|
 G#|------------------------------------|
  E|------------------------------------|
  B|--2-5-6-2-3-2--555-444-333--3-5-3---|
 F#|--2-5-6-2-3-2--333-222-111--3-5-3---|
 C#|--0-3-4-0-1-0---------------1-3-1---|
 pm   " " " " " "  """ """ """  " " "

 C#|---------------------------------------------------------------|
 G#|---------------------------------------------------------------|
  E|---------------------------------------------------------------|
  B|--2-5-6-2-3-2-2-5-6-2--555-444--2-5-6-2-3-2-2-5-6-2--444-333---|
 F#|--2-5-6-2-3-2-2-5-6-2--333-222--2-5-6-2-3-2-2-5-6-2--222-111---|
 C#|--0-3-4-0-1-0-0-3-4-0-----------0-3-4-0-1-0-0-3-4-0------------|
 pm   " " " " " " " " " "  """ """  " " " " " " " " " "  """ """

C#|--------------------------------------|
 G#|-------------------------------------|
  E|-------------------------------------|
  B|--2-5-6-2-3-2-2-5-6-2-3-2-3-/-5-\3---|
 F#|--2-5-6-2-3-2-2-5-6-2-3-2-3-/-5-\3---|
 C#|--0-3-4-0-1-0-0-3-4-0-1-0-1-/-3-\1---|
 pm   " " " " " " " " " " " " "  "  "  

 C#|--------------------------------------------------------------------------------|
 G#|--------------------------------------------------------------------------------|
  E|--------------------------------------------------------------------------------|
  B|--2-5-6-2-3-2-2-5-6-2----------555-444---------444-333---------3-/-5-\3---------|
 F#|--2-5-6-2-3-2-2-5-6-2----------333-222---------222-111---------3-/-5-\3---------|
 C#|--0-3-4-0-1-0-0-3-4-0--4-7-3-6---------3-6-2-5---------2-5-1-4-1-/-3-\1-4-7-3-6-|
 pm   " " " " " " " " " "  " " " " """ """ " " " " """ """ " " " " "   "  " " " " "


 C#|----------------------------------------------------------------------------------|
 G#|----------------------------------------------------------------------------------|
  E|----------------------------------------11---------11-----------------------------|
  B|--0-0-7-3-66-2-7-333-6-2-7-3-6--9-10-11-11-9-10-11-11-----------------------------|
 F#|--0-0-7-3-66-2-7-333-6-2-7-3-6----------------------------------------------------|
 C#|--0-0-7-3-66-2-7-333-6-2-7-3-6----------------------------------------------------|
 pm   " " " " "" " " """ " " " " "

 

 C#|----------------------------------------------------------------------------------|
 G#|----------------------------------------------------------------------------------|
  E|----------------------------------------11---------11-----------------------------|
  B|--0-0-7-3-66-2-7-333-6-2-7-3-6--9-10-11-11-9-10-11-11-----------------------------|
 F#|--0-0-7-3-66-2-7-333-6-2-7-3-6----------------------------------------------------|
 C#|--0-0-7-3-66-2-7-333-6-2-7-3-6----------------------------------------------------|
 pm   " " " " "" " " """ " " " " "

 C#|------------------------------------------------------------------------------------|
 G#|------------------------------------------------------------------------------------|
  E|------------------------------------------------------------------------------------|
  B|--0-0-7-3-66-2-7-333-6-2-7-3-6--------------------10-9-10-9---------------------2~~~|
 F#|--0-0-7-3-66-2-7-333-6-2-7-3-6--9-9-8-9--9-9-8-9------------10-h12p-9-h10p-7-h9-2~~~|
 C#|--0-0-7-3-66-2-7-333-6-2-7-3-6--------------------------------------------------0~~~|
 pm   " " " " "" " " """ " " " " "                    "  " "  "

                        Clean part rhythum
 C#|-----------------------------------------------------------------------------0-0----------------------|
 G#|--------------0-0-----------------------3-3----------------------3-3-------------3-3------------------|
  E|------0-0---------0-0-----------0-0---------0-0----------5-5---------5-5-------------5-5--4-4-5-4-----|
  B|--2-2----2-2----------2-2-/-4-4-----4-4---------4-4--5-5-----5-5---------5-5-----------------------5--|
 F#|------------------------------------------------------------------------------------------------------|
 C#|------------------------------------------------------------------------------------------------------|

                       distortion rhythum
 C#|-----------------------------------------------------------|
 G#|---------------5--5-5-5--5---------------------------------|
  E|---------------7--7-7-7--7--5--5-5-5-5--5--5--5-5-5-5--5---|
  B|--2--2-2-2--2--7--7-7-7--7--5--5-5-5-5--5--5--5-5-5-5--5---|
 F#|--2--2-2-2--2--5--5-5-5--5--7--7-7-7-7--7--7--7-7-7-7--7---|
 C#|--0--0-0-0--0---------------8--8-8-8-8--8--8--8-8-8-8--8---|


                          clean lead
 C#|--------------------------------------------------------------------------------------|
 G#|--------------------------------------------------------------------------------------|
  E|--11-11-h12p-11---------------------------11----14-14/16----------12------12----12----|
  B|----------------12-------12-h14-12-12-12-----12-------12-14-14-14----14-14---14-------|
 F#|-------------------14-14--------------------------------------------------------------|
 C#|--------------------------------------------------------------------------------------|


  E|-11-12~~(fade out)~|

       
                    distortion lead
 C#|--------------------------------------------------------------------|
 G#|--------------------------------------------------------------------|
  E|--9-9-9-12-12-12-11-11-11----------9-9-9-12-12-12----------11-11-11-|
  B|--------------------------12-12-12----------------12-12-12----------|
 F#|--------------------------------------------------------------------|
 C#|--------------------------------------------------------------------|

 C#|----------------------------------------------------------------|
 G#|----------------------------------------------------------------|
  E|--9-9-9---------------------------------------------------------|
  B|--------12-12-12-10-10-10-9-9-9-10-10-10-9-9-9----------9-9-9---|
 F#|-----------------------------------------------12-12-12---------|
 C#|----------------------------------------------------------------|


 C#|-----------------------------------------------------------------------|
 G#|--------------------------------------------12-12-12-10-10-10----------|
  E|--9-9-9-12-12-12-11-11-11----------12-12-12-------------------11-11-11-|
  B|--------------------------12-12-12-------------------------------------|
 F#|-----------------------------------------------------------------------|
 C#|-----------------------------------------------------------------------|

 C#|-------------------------------------------------------------------|
 G#|-------------------------------------------------------------------|
  E|--12-12-12-11-11-11-9-9-9------------------------------------------|
  B|--------------------------12-12-12-10-10-10-9-9-9----------9-9-9---|
 F#|--------------------------------------------------12-12-12---------|
 C#|-------------------------------------------------------------------|


                          distortion rhythum
 C#|---------------------------------------------------------------------------------------------------|
 G#|---------------------------------------------------------------------------------------------------|
  E|---------------------------------------------------------------------------------------------------|
  B|--3-3-3-3-3-3-3-3-3-3-3-3-3-3-3-3-3-3-3-3-5-5-5-5-4-4-4-4------------------------------------------|
 F#|----------------------------------------------------------2-2-2-2-3-3-3-3-3-3-3-3-3-3-3-3-3-3-3-3--|
 C#|---------------------------------------------------------------------------------------------------|

 C#|------------------------------------|
 G#|------------------------------------|
  E|------------------------------------|
  B|--7-7-7-7-5-5-5-5-4-4-4-4-5-5-5-5---|
 F#|------------------------------------|
 C#|------------------------------------|

                           distortion lead
 C#|----------------------------------------------------------------------------------------------------|
 G#|----------------------------------------------------------------------------------------------------|
  E|--------11-h12-------11-h12-------11-h12-14-11-----------------------------14-12-11-12-11----11-----|
  B|--14-----------14-----------14------------------------12-h14-------12-h14-----------------12----14--|
 F#|-----14-----------14-----------14---------------15-----------15-------------------------------------|
 C#|---------------------------------------------------15-----------15----------------------------------|

                    
                           distortion rhythum
 C#|-------------------------------------------------------------------------------------------------|
 G#|-------------------------------------------------------------------------------------------------|
  E|-------------------------------------------------------------------------------------------------|
  B|--2-2-2-2-2~~2-2-2-2-2~~2-2-2-2-5-5-5-5-4-4-4-4---------------------------------7-5-4-5-4--------|
 F#|-------------------------------------------------2-2-2-2-3-3-3-3-3~~3-3-3-3-3~~-----------7-5-7--|
 C#|-------------------------------------------------------------------------------------------------|


 C#|------------------------------------------------------------------------------------------------|
 G#|----------------------------------------------------------------------------------------2-------|
  E|------------------------------------------------------------------------------------------------|
  B|--0-3-0-3--5-h6-h5-h6----------------------------5---6---3--5-h6------3-0-3-0-000---------------|
 F#|--0-3-0-3--------------000-6-h7-h6-h7-000-7\1--0-5-0-6-0-3-------6-h7-3-0-3-0-000-0-1-4---4-1---|
 C#|--0-1-0-1--------------000------------000------0-3-0-4-0-1------------1-0-1-0-000---------------|
 pm   " " " "              """            """      " " " " " "            " " " " """
 
 
 C#|------------------------------------------------------------------------------------|
 G#|------------------------------------------------------------------------------------|
  E|--3-3-3-3--------------------------------------------------3-3-3-3--6-----5-----2ph-|
  B|----------2-2-2-2--------------------------1-1-1-1-4-4-4-4------------0-0---0-0-----|
 F#|-------------------4-4-4-4-0-0-0-0-3-3-3-3----------------------------0-0---0-0-----|
 C#|----------------------------------------------------------------------0-0---0-0-----|
 pm                                                                       " "   " "   

 C#|--------------------------------------------------------------|
 G#|--------------------------------------------------------------|
  E|-------------------6---6--------------------------6----6------|
  B|--3-000-3-000-0-0--5-0-5--222-5-6-5-3-5-6--5p-5-6-5-0--5------|
 F#|--3-000-3-000-0-0----0----222-5-6-5-3-5-6-----------0---------|
 C#|--1-000-1-000-0-0----0----000-3-4-3-1-3-4-----------0---------|
 pm   " """ " """ " "    "    """ " " " " " "     " "   " 

 C#|-----------------------------------------------------------------------------------------------|
 G#|-----------------------------------------------------------------------------------------------|
  E|--------------------------6---6--------------------------6---6-------------------------6----6--|
  B|--222-5-6-5-3-5-6--5p-5-6-5-0-5--222-5-6-5-3-5-6--5p-5-6-5-0-5--222-5-6-5-3-5-6--5p-5-6-5-0-5--|
 F#|--222-5-6-5-3-5-6-----------0----222-5-6-5-3-5-6-----------0----222-5-6-5-3-5-6-----------0----|
 C#|--000-3-4-3-1-3-4-----------0----000-3-4-3-1-3-4-----------0----000-3-4-3-1-3-4-----------0----|
 pm   """ " " " " " "     " "   "    """ " " " " " "     " "   "    """ " " " " " "     " "   " 


                       Distortion lead
 C#|--------------------------------------------------------------------------------------------------|
 G#|--------------------------------------------------------------------------------------------------|
  E|---------6---6------------------------------------------------------------------------------------|
  B|------6--5-0-5--5------6-5-----6------6-5----6-5-----6-5-----6-5------6-5-----6-5-----6-5-----6-5-|
 F#|-----------0--------------------------------------------------------------------------------------|cntd
 C#|--3-4------0-------3-4-----3-4----3-4----3-4-----3-4-----3-4-----3-4------3-4-----3-4-----3-4-----|
 pm            "    "  " " " " " " " 


 C#|---------------------------------------------------------------------------------------------|
 G#|---------------------------------------------------------------------------------------------|
  E|------------------------------------------------------------------3-2----3-2-----3-2---------|
  B|------6-5----6-5-----6-5-----6-5------6-5-----6-5-----6-5-----6-5-------------------------0~~|
 F#|---------------------------------------------------------------------1-0-----1-0-----1-0--1~~|
 C#|--3-4----3-4-----3-4-----3-4-----3-4------3-4-----3-4-----3-4-----------------------------0~~|
 pm                                                   " " " " " " " "                         "


                      distortion rhythum
 C#|----------------------------------------------------------|
 G#|----------------------------------------------------------|
  E|----------------------------------------------------------|
  B|--2-2--222-2-2---2-2-222-2-2---2-2-222-2-2---2-2-222-2-2--|
 F#|--2-2--222-2-2---2-2-222-2-2---2-2-222-2-2---2-2-222-2-2--|
 C#|--0-0--000-0-0---0-0-000-0-0---0-0-000-0-0---0-0-000-0-0--|
pm    " "  """ " "   " " """ " "   " " """ " "   " " """ " "



 C#|----------------------------------------------------------------------|fast picking
 G#|----------------------------------------------------------------------|
  E|--111111111111111111111111-44444444-33333333333333333333333333333333--|play twice
  B|----------------------------------------------------------------------|
 F#|----------------------------------------------------------------------|
 C#|----------------------------------------------------------------------|


 C#|----------------------------------------------------------------------|fast picking
 G#|----------------------------------------------------------------------|
  E|----------------------------------------------------------------------|play twice
  B|----------------------------------------------------------------------|
 F#|--444444444444444444444444-22222222-11111111111111111111111111111111--|
 C#|----------------------------------------------------------------------|



 C#|-----------------------------------------------------------------------------------|
 G#|-----------------------------------------------------------------------------------|
  E|---------------------4-4-4-4-3~~----------------------4-4-4-4-3~~------------------|
  B|--12-slide-down--2~~-5-5-5-5-4~~-999-555-888-444--2~~-5-5-5-5-4~~-999-555-888-444--|
 F#|--12-slide-down--2~~-------------999-555-888-444--2~~-------------999-555-888-444--|
 C#|--12-slide-down--0~~-------------777-333-666-222--0~~-------------777-333-666-222--|
 pm                                  """ """ """ """                  """ """ """ """


 C#|-------------------------------------------------------------------------------------------------------|
 G#|-------------------------------------------------------------------------------------------------------|
  E|------------------------4-4-4-4-3~~----------------------------------------4-4-4-4-3~~-----------------|
  B|--2-2-2-2-2-2-2-2-2-2-2-5-5-5-5-4~~-999-555-888-444--2-2-2-2-2-2-2-2-2-2-2-5-5-5-5-4~~-999-555-888-444-|
 F#|--2-2-2-2-2-2-2-2-2-2-2-------------999-555-888-444--2-2-2-2-2-2-2-2-2-2-2-------------999-555-888-444-|
 C#|--0-0-0-0-0-0-0-0-0-0-0-------------777-333-666-222--0-0-0-0-0-0-0-0-0-0-0-------------777-333-666-222-|
 pm   " " "   " "   " "   "             """ """ """ """  " " "   " "   " "   "             """ """ """ """



 
 C#|-------------------------------------------------------------------------------------------|
 G#|-------------------------------------------------------------------------------------------|
  E|-------------------------------------------------11---------11-----------------------------|
  B|-----------0-0-7-3-66-2-7-333-6-2-7-3-6--9-10-11-11-9-10-11-11-----------------------------|
 F#|-----------0-0-7-3-66-2-7-333-6-2-7-3-6----------------------------------------------------|
 C#|--4-7-3-6--0-0-7-3-66-2-7-333-6-2-7-3-6----------------------------------------------------|
 pm   " " " "  " " " " "" " " """ " " " " "


 C#|-------------------------------------------------------------------------------------------|
 G#|-------------------------------------------------------------------------------------------|
  E|-------------------------------------------------11---------11-----------------------------|
  B|-----------0-0-7-3-66-2-7-333-6-2-7-3-6--9-10-11-11-9-10-11-11-----------------------------|
 F#|-----------0-0-7-3-66-2-7-333-6-2-7-3-6----------------------------------------------------|
 C#|--4-7-3-6--0-0-7-3-66-2-7-333-6-2-7-3-6----------------------------------------------------|
 pm   " " " "  " " " " "" " " """ " " " " "
 
 
 C#|-------------------------------------------------------------------------------------------|
 G#|-------------------------------------------------------------------------------------------|
  E|-------------------------------------------------11---------11-----------------------------|
  B|-----------0-0-7-3-66-2-7-333-6-2-7-3-6--9-10-11-11-9-10-11-11-----------------------------|
 F#|-----------0-0-7-3-66-2-7-333-6-2-7-3-6----------------------------------------------------|
 C#|--4-7-3-6--0-0-7-3-66-2-7-333-6-2-7-3-6----------------------------------------------------|
 pm   " " " "  " " " " "" " " """ " " " " "


 C#|-------------------------------------------------------------------------------------------|
 G#|-------------------------------------------------------------------------------------------|
  E|-------------------------------------------------------------------------------------------|
  B|-----------0-0-7-3-66-2-7-333-6-2-7-3-6----------------------------------------------------|
 F#|-----------0-0-7-3-66-2-7-333-6-2-7-3-6--9-8-6-9--9-8-6-9----------------------------------|
 C#|--4-7-3-6--0-0-7-3-66-2-7-333-6-2-7-3-6----------------------------------------------------|
 pm   " " " "  " " " " "" " " """ " " " " "


 C#|--------------------------------------------------------------------|
 G#|--------------------------------------------------------------------|
  E|--------------------------------------------------------------------|
  B|----6-----6-----6-----6-----9-----8-----8-----8-----8-----8-----8---|
 F#|--0---0-0---0-0---0-0---0-0---0-0---0-0---0-0---0-0---0-0---0-0-----|
 C#|--0---0-0---0-0---0-0---0-0---0-0---0-0---0-0---0-0---0-0---0-0-----|
 pm   "   " "   " "   " "   " "   " "   " "   " "   " "   " "   " " 


 C#|--------------------------------------------------------------------|
 G#|--------------------------------------------------------------------|
  E|--------------------------------------------------------------------|
  B|----6-----6-----6-----6-----9-----8-----8-----8-----8-----8-----8---|
 F#|--0---0-0---0-0---0-0---0-0---0-0---0-0---0-0---0-0---0-0---0-0-----|
 C#|--0---0-0---0-0---0-0---0-0---0-0---0-0---0-0---0-0---0-0---0-0-----|
 pm   "   " "   " "   " "   " "   " "   " "   " "   " "   " "   " " 


 C#|---------------------------------------------------------------------|
 G#|---------------------------------------------------------------------|
  E|---------------------------------------------------------------------|
  B|----6-----6-----6-----6-----9-----8-----8------8-----8-----8------8--|
 F#|--0-7-0-0-7-0-0-7-0-0-7-0-0-7-0-0---7-0---7--0---7-0---7-0---7--0----|
 C#|--0---0-0---0-0---0-0---0-0---0-0-----0------0-----0-----0------0----|
 pm   "   " "   " "   " "   " "   " "     "      "     "     "      " 

 C#|---------------------------------------------------------------------|
 G#|---------------------------------------------------------------------|
  E|---------------------------------------------------------------------|
  B|----6-----6-----6-----6-----9-----8-----8------8-----8-----8------8--|
 F#|--0-7-0-0-7-0-0-7-0-0-7-0-0-7-0-0---7-0---7--0---7-0---7-0---7--0----|
 C#|--0---0-0---0-0---0-0---0-0---0-0-----0------0-----0-----0------0----|
 pm   "   " "   " "   " "   " "   " "     "      "     "     "      " 

 C#|---------------------------|
 G#|---------------------------|
  E|---------------------------|
  B|--5^^~--4^^~--2^^~--~~--|
 F#|---------------------------|
 C#|---------------------------|

Just to let everyone know BTBAM NEVER plays dropped d or c they play tuned to c (2 full steps down)





Comments


Popular Between The Buried And Me tabs & chords
Bicycle Race Bass Tabs
Decade Of Statues Bass Tabs
Autodidact Intro Tabs
Backwards Marathon Tabs
Camilla Rhodes Tabs
Lost Perfections A And B Tabs
Need For Repetition Tabs
Selkies The Endless Obsession 4 Tabs
Shevanel Take 2 2 Tabs
Sun Of Nothing Tabs


Song lyrics



↑ Back to top | Tablatures and chords are parodies/interpretations of the original songs. You may use it for private study, scholarship, research or language learning purposes only
© 2014 AZChords.com Contact us | Privacy policy | DMCA | Add/correct tabs | Request tabs | Top 50 tabs