>
 >
Alaska

Alaska Bass Tabs

Between The Buried And Me - Alaska chords, tabs, tablatures, lyrics

Guitar lessons | Add/correct | Request | Top 50 tabs Artists:  A B C D E F G H I J K L M N O P Q R S T U V W X Y Z 0-9

Alaska Bass Tabs – Between The Buried And Me

CD, Sheet music, Poster

Do you like Alaska? Share with your friends now
Bass TabsTabsTabs v2Tabs v3
Tuning: C# Standard
High to Low (E, B, F#, C#)


|-----------------------------------------------------------------|
|-----------------------------------------------------------------|
|------3~---5~---7~-------------2~---2~------7-6-3-2--------------|
|-0~------------------5~---2~-------------0----------5-3-2-3-5--0-|

|-----------|
|-----------|
|-3~--------|
|------3~---|


|-------------------------------------------------------------|
|-------------------------------------------------------------|
|---------------------------3---2-3-5-----------235-----------|
|-0---0---00----00----000-----3-------0-------3------3--3--33-|x4


|--------------------------------------------|
|--------------------------------------------|
|----------------6-6---------9-------------2-|
|-000--000--000------8-8-7-7----0-0-00-------|


                       x2
|------------------------|--------------------------------|
|-----5-5---------5-5----|--------------------------------|
|------------------------|---------5-4-----2-3-----5-5----|
|-3-3-----2---3-3-----2--|-5-2-3-2-----3-0-----3-0-----4--|


                       x2
|------------------------|--------------------------------|
|-----5-5---------5-5----|--------------------------------|
|------------------------|---------5-4-----2-3-----5-5----|
|-3-3-----2---3-3-----2--|-5-2-3-2-----3-0-----3-0-----4--|


                       x2
|------------------------|--------------------------------|
|-----5-5---------5-5----|--------------------------------|
|------------------------|---------5-4-----2-3-----5-5----|
|-3-3-----2---3-3-----2--|-5-2-3-2-----3-0-----3-0-----4--|


                       x2
|------------------------|--------------------------------|
|-----5-5---------5-5----|--------------------------------|
|------------------------|---------5-4-----2-3-----5-5----|
|-3-3-----2---3-3-----2--|-5-2-3-2-----3-0-----3-0-----4--|


|-------------------------|
|-------------------------|
|-------------------------|
|-3-2-1-4-3-2-6-5-4-3-2-1-|


|-----------------------------------------|
|-----------------------------3-----------|
|-----------------------------------------|
|-6-2-6-2---1-3-2-1--1-2-3-2----3-2-3-2-1-|x4

|-------------------------|
|-------------------------|
|-------------------------|
|-8~-----------------8----|

                  x3
|-------------------|-------------------|
|-------------------|-------------------|
|-0--------1--------|-0--------0--1--0--|
|----2--2-----1--1--|----2--2-----------|

                  x3
|-------------------|-------------------|
|-------------------|-------------------|
|-0--------1--------|-0--------0-----0--|
|----2~-------1~----|----2~-------4-----|

|---------------|-------------------------------------|
|---------------|-------------------------------------|
|---------------|-1-4-1---1-4---1---1---2-1-----------|
|-5~-----5~-----|-------3-----3---3---2-----3-2-0-----|


|-------------------------------------------------------------------|
|-------------------------------------------------2-1---------------|
|---5-4---------------------1---------5-4-------------2-3-----------|
|-3-----6-3-1-1-1-11-1-11-1---3-2-0-3-----5-6-2-3---------4-1-0-3-0-|x3

|------------------------------------------------------------------------|
|------------------------------------------------------------------------|
|---5-4---------------------1---------5-4---------7-6---------9-8--------|
|-3-----6-3-1-1-1-11-1-11-1---3-2-0-3-----5-6-3-5-----7-8-5-7-----9-10-7-|

|---------|------------|
|---------|------------|
|-----696-|------------|
|-5-8-----|-7---6---3--|


|----------------------------------|
|-----------------10-----9-----5---|
|-----1-0-3-2--------8-7---7-6---6-|
|-2-3---------3-4------------------|x2

                         x2
|--------------------------|--------------|
|-----5-5------------------|-10-----9-----|
|--------------------------|----8-7---7-6-|
|-3-3-----2--3--4-3-2-3--4-|--------------|


|------------------------------------------|------------|
|-----------------10-----9-----5-----------|------------|
|-----1-0-3-2--------8-7---7-6---6-----696-|------------|
|-2-3---------3-4------------------5-8-----|-7---6---3--|


|----------------------------------|
|-----------------10-----9-----5---|
|-----1-0-3-2--------8-7---7-6---6-|
|-2-3---------3-4------------------|x2

|-----------|
|-5-----0---|
|---6-----1-|
|-----------|


|---------------------------------|-------------------|
|---------------------------------|-------------------|
|---------6---------3-----6-----5-|-8-----------8--11-|
|-0-0-3-4-----7-4-5---5-8---8-7---|-----7-7-7---------|


|-----------------------|-----------------------|\
|-----------------------|-----------------------| \
|-------3~---------3~---|-------6~---------6~---|  \ 
|-5-4-5------5-4-5------|-8-7-8------8-7-8------|   \_ _
                                                        \ x2
|-----------------------|-----------------------------| /
|-------4~---------4~---|-------7~--------------------|/
|-6-5-6------6-5-6------|-9-8-9------9-8-9-8--6--5----|
|-----------------------|---------------------------6-|


|--------------|
|--------------|
|-0--------2---|
|----4-1-----3-|


|---------------------------------|
|-----------------3-0-1-4-7-4-----|
|-0-3-0-3-6-3-2-5-------------6-3-|
|---------------------------------|x3

|---------------------------------|
|-----------------3-0-1-4-7-4-5---|
|-0-3-0-3-6-3-2-5-----------------|
|---------------------------------|

|----------------------------|
|-10-----9-----5---5-----0---|
|----8-7---7-6---6---6-----1-|
|----------------------------|

|-----------------------------------------------------------|
|-----------------------------------------------------------|
|---------6-------------------------------------------------|
|-0-0-3-4----0-0-----0-0-0------0---0-0-----0-0-0-0----0-0--|

*This is also the bass solo.
|-----------------------------------------------------------------|
|-----------------------------------------------------------------|
|-----------------------------------------------------------------|
|-6-7-6-7-6-7-0-0-0-6-7-6-7-0-6-7-0-0-6-7-6-0-0-0-0-6-7-6-7-0-6-0-|x9





Comments


Popular Between The Buried And Me tabs & chords
Bicycle Race Bass Tabs
Day I Tried To Live 2 Bass Tabs
Little 15 Bass Tabs
Us And Them Bass Tabs
Foam Born A The Backtrack Drum Tabs
All Bodies Tabs
Extremophile Elite Intro Tabs
Lost Perfections A And B Tabs
Primer Intro 1 Tabs
Selkies The Endless Obsession 4 Tabs


Song lyrics



↑ Back to top | Tablatures and chords are parodies/interpretations of the original songs. You may use it for private study, scholarship, research or language learning purposes only
© 2014 AZChords.com Contact us | Privacy policy | DMCA | Add/correct tabs | Request tabs | Top 50 tabs