» » »

Between The Buried And Me, Alaska Tabs (ver.3)

Artists:  A B C D E F G H I J K L M N O P Q R S T U V W X Y Z # 

Alaska Tabs (ver.3)

Between The Buried And Me Tabs
Rating:
3/5 (4 votes)
Alaska lessons Tabs too difficult? Try these video lessons and learn fast
                Between The Buried And Me
Alaska

note: this song is not played in the tuning i have it in. i only changed all the notes 
standard, dropped D tuning so most guitarists can play along with the song.

Intro:

E|------------4-9-/12-9---------|----------------11-14-16-12----------|
B|----------5-----------10------|-------------12-------------14-------|
G|--------6----------------9----|----------11-------------------13----|
D|------6--------------------11-|--7-/9-13-------------------------14-|
A|--4-7-------------------------|-------------------------------------|
D|------------------------------|-------------------------------------|


E-------------------17-16-14----------|------------------------------------|
B---------12-14-16----------17-16-14-|-13-14-16-14-13----------------------|
G11-13-14----------------------------|----------------14-13----------------|
D------------------------------------|----------------------14-16-13-------|
A------------------------------------|-------------------------------15-16-|
D------------------------------------|-------------------------------------|


E|-----------------|-------4-9t12-9--4-----------|---------------------|
B|-----------------|-----5-------------5---------|-----------------4-5-|
G|---------------9-|---6-----------------6-------|-----------5---------|
D|--------6--------|-6---------------------6-----|-------6-----6-6-----|
A|-4---------------|-------------------------7-4-|-4-4-4---4-----------|
D|-----------------|-----------------------------|---------------------|

----------12-11-8-9-8------|----------------------|
-10-9---9-------------9----|------9-10-9---12-/14-|
------9------------------8-|----9--------9--------|
---------------------------|-11-------------------|
---------------------------|----------------------|
---------------------------|----------------------|

-----11-12-11----------7-11-14/---(repeat---|
-------------------9---------------2nd time-|
--9----------11-9-------------------end on--|
-------------------------------------this)--|
--------------------------------------------|
--------------------------------------------|


E|----------------------|---11-12-11----------7-11-14/--(repeat)-----||
B|------9-10-9---12-/14-|------------------9--------------as many----||
G|----9--------9--------|--9---------11-9------------------times as--||
D|-11-------------------|-----------------------------------needed)--||
A|----------------------|--------------------------------------------||
D|----------------------|--------------------------------------------||

THIS IS THE WAY I LEARNED IT. I really hope it's good enough!!!!

=]
            
Submit corrections

comments powered by Disqus
↑ Back to top | Between The Buried And Me Tabs for Alaska. Lyrics for acoustic guitar and electric guitar. Tablatures and chords are parodies/interpretations of the original songs. You may use it for private study, scholarship, research or language learning purposes only