» » »

Berzerker, Pain Tabs (ver.1)

Artists:  A B C D E F G H I J K L M N O P Q R S T U V W X Y Z # 

Pain Tabs (ver.1)

Berzerker Tabs
Rating:
5/5 (2 votes)
Hard to play? Try these video lessons and learn fast.
                Pain- BERZERKER

This is a kick ass song and its pretty easy, but hey its all good. 
Gtr I (A D G C E A) - 'Rhythm Guitar'

4/4
  Gtrs I, II
  E Q  E E Q  E   E Q  E E Q  E   E Q  E E Q  E   E E E E E E E E
|---------------|---------------|---------------|------------------|
|---------------|---------------|---------------|------------------|
|-2----2-2----2-|-2----2-2----2-|-2----2-2----2-|------------------|
|-2----2-2----2-|-2----2-2----2-|-2----2-2----2-|-2-2-2-2-2-2-2-2--|
|-0----0-0----0-|-0----0-0----0-|-0----0-0----0-|-0-0-0-0-0-0-0-0--|
|---------------|---------------|---------------|------------------|


  E Q  E E Q  E   E Q  E E Q  E   E Q  E E Q  E   E E E E E E E E
|---------------|---------------|---------------|-----------------|
|---------------|---------------|---------------|-----------------|
|---------------|---------------|---------------|-----------------|
|-2----2-2----2-|-2----2-2----2-|-2----2-2----2-|-2-2-2-2-2-2-2-2-|
|-0----0-0----0-|-0----0-0----0-|-0----0-0----0-|-0-0-0-0-0-0-0-0-|
|---------------|---------------|---------------|-----------------|


  E    H..         W          W           W
|-------------|----------|----------|----------|
|-------------|----------|----------|----------|
|-------------|----------|----------|----------|
|-2-----------|----------|----------|----------|
|-0-----------|----------|----------|----------|
|-------------|----------|----------|----------|


                    3/4             4/4               5/4
  E E E E E E E E    E E E E E E     E E E E E E E E   E E E E E E E E E E
|------------------|---------------|-----------------|---------------------|
|------------------|---------------|-----------------|---------------------|
|------------------|---------------|-----------------|---------------------|
|-2-2-2-2-2-2-2-2--|-2-2-2-2-2-2---|-2-2-2-2-2-2-2-2-|-2-2-2-2-2-2-2-2-2---|
|-0-0-0-0-0-0-0-0--|-0-0-0-0-0-0---|-0-0-0-0-0-0-0-0-|-0-0-0-0-0-0-0-0-0---|
|------------------|---------------|-----------------|---------------------|


 4/4
  E Q  E E Q  E   E Q   E E Q  E   E Q  E E  Q  E   E E E E E E E  E
|---------------|----------------|----------------|------------------|
|---------------|----------------|----------------|------------------|
|---------------|----------------|----------------|------------------|
|-2----2-2----2-|-2-----2-2----2-|-2----2-2-----2-|-2-2-2-2-2-2-2----|
|-0----0-0----0-|-0-----0-0----0-|-0----0-0-----0-|-0-0-0-0-0-0-0----|
|---------------|----------------|----------------|------------------|


         3/4        4/4        5/4
  W         H.          W         Q W
|-------|----------|----------|---------|
|-------|----------|----------|---------|
|-------|----------|----------|---------|
|-------|----------|----------|---------|
|-------|----------|----------|---------|
|-------|----------|----------|---------|


 4/4
  E E E E E E E E   E E E E E E E E   E E E E E E E E   E E E E E E E E
|-----------------|-----------------|-----------------|------------------|
|-----------------|-----------------|-----------------|------------------|
|-----------------|-----------------|-----------------|------------------|
|-2-2-2-2-2-2-2-2-|-2-2-2-2-2-2-2-2-|-2-2-2-2-2-2-2-2-|-2-2-2-2-2-2-2-2--|
|-0-0-0-0-0-0-0-0-|-0-0-0-0-0-0-0-0-|-0-0-0-0-0-0-0-0-|-0-0-0-0-0-0-0-0--|
|-----------------|-----------------|-----------------|------------------|


                   3/4           4/4               5/4
  E E E E E E E E   E E E E E E   E E E E E E E E   E E E E E E E E E E
|-----------------|-------------|-----------------|---------------------|
|-----------------|-------------|-----------------|---------------------|
|-----------------|-------------|-----------------|---------------------|
|-2-2-2-2-2-2-2-2-|-2-2-2-2-2-2-|-2-2-2-2-2-2-2-2-|-2-2-2-2-2-2-2-2-2---|
|-0-0-0-0-0-0-0-0-|-0-0-0-0-0-0-|-0-0-0-0-0-0-0-0-|-0-0-0-0-0-0-0-0-0---|
|-----------------|-------------|-----------------|---------------------|


 4/4     3/4        4/4      5/4
  W         H.         W       Q  W
|-------|----------|--------|----------|
|-------|----------|--------|----------|
|-------|----------|--------|----------|
|-------|----------|--------|----------|
|-------|----------|--------|----------|
|-------|----------|--------|----------|


 4/4
  E E E E E E E E   E E  E E E E E E   E E E E  E E E E   E E E E E E E E
|-----------------|------------------|------------------|------------------|
|-----------------|------------------|------------------|------------------|
|-----------------|------------------|------------------|------------------|
|-2-2-2-2-2-2-2-2-|-2-2--2-2-2-2-2-2-|-2-2-2-2--2-2-2-2-|-2-2-2-2-2-2-2----|
|-0-0-0-0-0-0-0-0-|-0-0--0-0-0-0-0-0-|-0-0-0-0--0-0-0-0-|-0-0-0-0-0-0-0----|
|-----------------|------------------|------------------|------------------|


  Wx8
|--------|
|--------|
|--------|
|--------|
|--------|
|--------|


  E E E E E E E E   E E E E E E E E   E E E E E E E E   E E E E E E E E
|-----------------|-----------------|-----------------|-----------------|
|-----------------|-----------------|-----------------|-----------------|
|-----------------|-----------------|-----------------|-----------------|
|-2-2-2-2-2-2-2-2-|-2-2-2-2-2-2-2-2-|-2-2-2-2-2-2-2-2-|-2-2-2-2-2-2-2-2-|
|-0-0-0-0-0-0-0-0-|-0-0-0-0-0-0-0-0-|-0-0-0-0-0-0-0-0-|-0-0-0-0-0-0-0-0-|
|-----------------|-----------------|-----------------|-----------------|


  E E E E E E E E   E E E E E E E E   E E E E E E E E   E E E E E E E E
|-----------------|-----------------|-----------------|-----------------|
|-----------------|-----------------|-----------------|-----------------|
|-----------------|-----------------|-----------------|-----------------|
|-2-2-2-2-2-2-2-2-|-2-2-2-2-2-2-2-2-|-2-2-2-2-2-2-2-2-|-2-2-2-2-2-2-2---|
|-0-0-0-0-0-0-0-0-|-0-0-0-0-0-0-0-0-|-0-0-0-0-0-0-0-0-|-0-0-0-0-0-0-0---|
|-----------------|-----------------|-----------------|-----------------|


          3/4         4/4      5/4
  W           H.         W        Q  W
|--------|-----------|--------|----------|
|--------|-----------|--------|----------|
|--------|-----------|--------|----------|
|--------|-----------|--------|----------|
|--------|-----------|--------|----------|
|--------|-----------|--------|----------|


 4/4
  E E E E E E E E   E E E E E E E E   E E E E E E E E   E E E E E E E E
|-----------------|-----------------|-----------------|------------------|
|-----------------|-----------------|-----------------|------------------|
|-----------------|-----------------|-----------------|------------------|
|-2-2-2-2-2-2-2-2-|-2-2-2-2-2-2-2-2-|-2-2-2-2-2-2-2-2-|-2-2-2-2-2-2-2----|
|-0-0-0-0-0-0-0-0-|-0-0-0-0-0-0-0-0-|-0-0-0-0-0-0-0-0-|-0-0-0-0-0-0-0----|
|-----------------|-----------------|-----------------|------------------|


 2/4    4/4
  H      E Q  E E Q  E   E Q  E E Q  E   E Q  E E Q  E   E E E E E E E E
|------|---------------|---------------|---------------|-------------------|
|------|---------------|---------------|---------------|-------------------|
|------|---------------|---------------|---------------|-------------------|
|------|-2----2-2----2-|-2----2-2----2-|-2----2-2----2-|-2-2-2-2-2-2-2-2---|
|------|-0----0-0----0-|-0----0-0----0-|-0----0-0----0-|-0-0-0-0-0-0-0-0---|
|------|---------------|---------------|---------------|-------------------|


  E Q  E E Q  E   E Q  E E Q  E   E Q  E E Q  E   E E E E E E E E   E E H.
|---------------|---------------|---------------|-----------------|--------*|
|---------------|---------------|---------------|-----------------|--------*|
|---------------|---------------|---------------|-----------------|--------*|
|-2----2-2----2-|-2----2-2----2-|-2----2-2----2-|-2-2-2-2-2-2-2-2-|-2------*|
|-0----0-0----0-|-0----0-0----0-|-0----0-0----0-|-0-0-0-0-0-0-0-0-|-0------*|
|---------------|---------------|---------------|-----------------|--------*|




--------------------------------------------------------------------------------


Duration Legend
---------------
W - whole; H - half; Q - quarter; E - 8th; S - 16th; T - 32nd; X - 64th; a - acciaccatura
+ - note tied to previous; . - note dotted; .. - note double dotted
Uncapitalized letters represent notes that are staccato (1/2 duration)
Irregular groupings are notated above the duration line
Duration letters will always appear directly above the note/fret number it represents the
duration for.  Duration letters with no fret number below them represent rests.  Multi-
bar rests are notated in the form Wxn, where n is the number of bars to rest for.  Low
melody durations appear below the staff

Tablature Legend
----------------
 h   - hammer-on
 p   - pull-off
 b   - bend
 pb  - pre-bend
 r   - bend release (if no number after the r, then release immediately)
 /\  - slide into or out of (from/to "nowhere")
 s   - legato slide
 S   - shift slide
 - natural harmonic
[n]  - artificial harmonic
n(n) - tapped harmonic
 ~   - vibrato
 tr  - trill
 T   - tap
 TP  - trem. picking
 PM  - palm muting
\n/  - tremolo bar dip; n = amount to dip
 \n  - tremolo bar down
 n/  - tremolo bar up
/n\  - tremolo bar inverted dip
 =   - hold bend; also acts as connecting device for hammers/pulls
 <> - volume swell (louder/softer)
 x   - on rhythm slash represents muted slash
 o   - on rhythm slash represents single note slash

Misc Legend
-----------
 |  - bar
||  - double bar
||o - repeat start
o|| - repeat end
*|  - double bar (ending)
 :  - bar (freetime)
 $  - Segno
 &  - Coda
Tempo markers -  = BPM(8/16=s8/s16), where s8 = swing 8ths, s16 = swing 16ths
            

comments powered by Disqus
↑ Back to top | Berzerker Tabs for Pain. Lyrics for acoustic guitar and electric guitar. Tablatures and chords are parodies/interpretations of the original songs. You may use it for private study, scholarship, research or language learning purposes only