» » »

Farewell Tabs (ver.1)

Artists:  A B C D E F G H I J K L M N O P Q R S T U V W X Y Z # 

Farewell Tabs (ver.1)

Berzerker
Rating:
1/5 (1 vote)

Hard to play? Try these video lessons and learn fast.
                the songs composed of 3 parts... you play that for 20 minutes (yea right... you'll stop
the first 3 minutes) and the guitarist usually plays fast, so he's techniques easy to
just don't try reality or no one wins....

basically your only gonna use the 6th 5th and 4th strings throughout the song... i lost
tuner so i had to play it by ear... and i can't tell you the tuning but i'll update the
when i find it and put the tuning in... till then drop the tuning kick the gain high and 
as follows

Palm mute the song entirely...

|-----------------------------------|
|-----------------------------------|
|-----------------------------------|
|0-0-1-2--0-0-1-3-3--0-00-1-2--3-0--|(x2)
|0-0-1-2--0-0-1-3-3--0-00-1-2--3-0--|
|0-0-1-2--0-0-1-3-3--0-00-1-2--3-0--|

|------------------------|
|------------------------|
|------------------------|
|0034---00450--00-3-543-0|
|0034---00450--00-3-543-0|
|0034---00450--00-3-543-0|


|------------------------------------|
|------------------------------------|
|------------------------------------|
|0-0-1-2--0-0-1-3-3--0-00-1-2--33-0--|
|0-0-1-2--0-0-1-3-3--0-00-1-2--33-0--|
|0-0-1-2--0-0-1-3-3--0-00-1-2--33-0--|


after that it kinda just repeats itself... i'll give a update when i can...

good luck tab hunters
            
Hard to play? Try these video lessons and learn fast. | Correct




comments powered by Disqus
↑ Back to top | Tablatures and chords are parodies/interpretations of the original songs. You may use it for private study, scholarship, research or language learning purposes only