>
 >
Deform

Deform Guitar Tabs

Berzerker - Deform chords, tabs, tablatures, lyrics

Guitar lessons | Add/correct | Request | Top 50 tabs Artists:  A B C D E F G H I J K L M N O P Q R S T U V W X Y Z 0-9

Deform Guitar Tabs – Berzerker

CD, Sheet music, Poster

Do you like Deform? Share with your friends now
Bass TabsTabs
Deform- BERZERKER
Pretty simple song, easy to learn but sounds awesome with the 
right effects. Enjoy and peace out!!

Gtr I (A D G C E A) 
Gtr II (A D G C E A)

 
 4/4
  Gtr I
  E E E E E E E E   E E E E E E S S S S   E E E E E E E E   E E E E E E E E
|-----------------|---------------------|-----------------|------------------|
|-----------------|---------------------|-----------------|------------------|
|-----------------|---------------------|---------------2-|------------------|
|-----------------|---------------------|---------------2-|------------------|
|-----------------|---------------------|---------------0-|---------3-2-3-3--|
|-0-0-0-0-0-0-0-0-|-0-0-0-0-0-0-0-0-0-0-|-0-0-0-0-0-0-0---|-0-0-0-0-1-0-1-1--|


  E E E E E E E E   E E E E E E E E   E E E E E E E E   E E E E Q  Q
|-----------------|-----------------|-----------------|---------------||
|-----------------|-----------------|-----------------|---------------||
|-----------------|---------------4-|-----------------|---------------||
|-----------------|---------------4-|-----------------|---------3-----||
|-----------------|---------------2-|-----------------|---------3-----||
|-0-0-0-0-0-0-0-0-|-0-0-0-0-0-0-0---|-0-0-0-0-0-0-0-0-|-0-0-0-0-1-----||


    Gtrs I, II
    S S S S S S S S S S S S S S S S   S S S S S S S S  S  S  S  S  S  S  S  S
||----------------------------------|------------------------------------------|
||o---------------------------------|------------------------------------------|
||----------------------------------|------------------------------------------|
||----------------------------------|------------------------------------------|
||o-7-7-7-7-7-7-7-7-7-7-7-7-7-7-7-7-|-8-8-8-8-8-8-8-8-10-10-10-10-10-10-10-10--|
||----------------------------------|------------------------------------------|


  S S S S S S S S S S S S S S S S   S S S S S S S S S S S S S S S S
|---------------------------------|------------------------------------||
|---------------------------------|-----------------------------------o||
|---------------------------------|------------------------------------||
|---------------------------------|------------------------------------||
|-7-7-7-7-7-7-7-7-7-7-7-7-7-7-7-7-|-8-8-8-8-8-8-8-8-5-5-5-5-5-5-5-5---o||
|---------------------------------|------------------------------------||


    S S S S S S S S S S S S S S S S   S S S S S S S S S S S S S S S S
||----------------------------------|----------------------------------|
||o---------------------------------|----------------------------------|
||----------------------------------|----------------------------------|
||--------------------------5-5-5-5-|---------5-5-5-5------------------|
||o-7-7-7-7-5-5-5-5-8-8-8-8---------|-7-7-7-7---------5-5-5-5-8-8-8-8--|
||----------------------------------|----------------------------------|


  Gtr I
  S S S S S S S S e E e E    S  S  S  S  S  S  S  S S S S S S S S S
|-------------------------|---------------------------------------------||
|-------------------------|--------------------------------------------o||
|-------------------------|---------------------------------------------||
|-------------------------|---------------------------------------------||
|-7-7-7-7-7-7-7-7-5---5---|-11-11-11-11-11-11-11-11-8-8-8-8-8-8-8-8----o||
|-------------------------|---------------------------------------------||
|
| Gtr II
| S S S S S S S S e E e E    S  S  S  S  S  S  S  S S S S S S S S S
|-------------------------|---------------------------------------------||
|-------------------------|--------------------------------------------o||
|-------------------------|---------------------------------------------||
|-------------------------|---------------------------------------------||
|-7-7-7-7-7-7-7-7-5---5---|--8--8--8--8--8--8--8--8-5-5-5-5-5-5-5-5----o||
|-------------------------|---------------------------------------------||


  Wx8
|--------|
|--------|
|--------|
|--------|
|--------|
|--------|


    S S S S S S S S S S S S S S S S   S S S S S S S S S S S S S S S S
||----------------------------------|----------------------------------|
||o---------------------------------|----------------------------------|
||----------------------------------|----------------------------------|
||--------------------------5-5-5-5-|---------5-5-5-5------------------|
||o-7-7-7-7-5-5-5-5-8-8-8-8---------|-7-7-7-7---------5-5-5-5-8-8-8-8--|
||----------------------------------|----------------------------------|


  Gtr I
  S S S S S S S S e E e E    S  S  S  S  S  S  S  S S S S S S S S S
|-------------------------|---------------------------------------------||
|-------------------------|--------------------------------------------o||
|-------------------------|---------------------------------------------||
|-------------------------|---------------------------------------------||
|-7-7-7-7-7-7-7-7-5---5---|-11-11-11-11-11-11-11-11-8-8-8-8-8-8-8-8----o||
|-------------------------|---------------------------------------------||
|
| Gtr II
| S S S S S S S S e E e E    S  S  S  S  S  S  S  S S S S S S S S S
|-------------------------|---------------------------------------------||
|-------------------------|--------------------------------------------o||
|-------------------------|---------------------------------------------||
|-------------------------|---------------------------------------------||
|-7-7-7-7-7-7-7-7-5---5---|--8--8--8--8--8--8--8--8-5-5-5-5-5-5-5-5----o||
|-------------------------|---------------------------------------------||


    W          H    H      W          W
||-----------|-----------|----------|-------||
||o----------|-----------|----------|------o||
||-----------|-----------|----------|-------||
||--2--------|-3----5----|-2--------|-3-----||
||o-2--------|-3----5----|-2--------|-3----o||
||--0--------|-1----3----|-0--------|-1-----||


    Gtr I
    E E E E E E E E   E E E E E E Q      Q  E E E E E E
||------------------|-----------------||----------------|
||o-----------------|----------------o||----------------|
||------------------|-----------------||----------------|
||------------------|-------------3---||-4--------------|
||o-6-5-6-8-7-6-3-6-|---6-5-6---6-3--o||-4--6-8-7-6-5-6-|
||--4-3-4-6-5-4-1-4-|---4-3-4---4-1---||-2--4-6-5-4-3-4-|


  E E E E E E Q   Q E E E E E E            W
|---------------|---------------|---------------|
|---------------|---------------|---------------|
|---------------|---------------|---------------|
|-------------3-|-4-------------|---------------|
|---6-3-3---2-3-|-4-6-8-7-6-5-6-|---------------|
|---4-1-4---4-1-|-2-4-6-5-4-3-4-|---------------|


    Gtrs I, II
    Q  S S S S S S S S S S S S   S S S S S S S S S S S S S S S S
||-----------------------------|---------------------------------|
||o----------------------------|---------------------------------|
||-----------------------------|---------------------------------|
||--4--7-7-5-5-4-4-9-9-5-5-7-7-|-7-7-7-7-9-9-5-5-5-5-7-7-4-4-4-4-|
||o-4--------------------------|---------------------------------|
||--2--------------------------|---------------------------------|


  Q  S S S S S S S S S S S S   S S S S S S S S  q     q     4x
|----------------------------|------------------------------||
|----------------------------|-----------------------------o||
|----------------------------|------------------------------||
|-4--7-7-5-5-4-4-9-9-5-5-7-7-|-7-7-7-7-9-9-5-5--4-----4-----||
|-4--------------------------|------------------4-----4----o||
|-2--------------------------|------------------2-----2-----||


    Gtr I
    E E E E E E E E   +E  E E Q E E E   E E E E Q E E E E Q E E E E
||------------------|-----------------|---------------------------------||
||o-----------------|-----------------|--------------------------------o||
||----------------5-|-(5)-------------|---------------------------------||
||----------------5-|-(5)-------------|---------5-3-4-3-2-5-------------||
||o-4-7-8-7-5-2-7-3-|-(3)-7-5-8-7-5-2-|-4-7-8-7-5-1-2-1-0-5-5-7-5-2----o||
||--2-5-6-5-3-0-5---|-----5-3-6-5-3-0-|-2-5-6-5-3---------3-3-5-3-0-----||


    Gtrs I, II
    E E E E E E E E   +E  E E Q  E E E   E E E E Q  E E   E E Q  E E E E 4x
||------------------|------------------|----------------|----------------||
||o-----------------|------------------|----------------|---------------o||
||----------------5-|-(5)--------------|----------------|----------------||
||----------------5-|-(5)--------------|---------5--3-4-|-3-2-5----------||
||o-4-7-8-7-5-2-7-3-|-(3)-7-5-8--7-5-2-|-4-7-8-7-5--1-2-|-1-0-5--5-7-5-2o||
||--2-5-6-5-3-0-5---|-----5-3-6--5-3-0-|-2-5-6-5-3------|-----3--3-5-3-0-||


    Q  E E E E E E   E E E E E E E E   Q  E E E E E E   E E E E E E Q
||-----------------|-----------------|----------------|---------------|
||o----------------|-----------------|----------------|---------------|
||-----------------|-----------------|----------------|---------------|
||--4--------------|-----------------|-4--------------|-------------3-|
||o-4--------------|-----------------|-4--------------|-------------3-|
||--2--2-2-2-2-2-2-|-5-5-5-5-6-6-1-1-|-2--2-2-2-2-2-2-|-5-5-5-5-6-6-1-|


  Q  E E E E E E   E E E E E E E E   Q E E E E E E   Q E E E E q
|----------------|-----------------|---------------|-----------------||
|----------------|-----------------|---------------|----------------o||
|----------------|-----------------|-6-------------|-----------------||
|-4--------------|-----------------|-6-------------|-8---------5-----||
|-4--------------|-----------------|-4-4-4-4-4-4-4-|-8---------5----o||
|-2--2-2-2-2-2-2-|-5-5-5-5-6-6-6-6-|---------------|-6-6-6-6-6-3-----||


  S S S S S S S S S S S S S S S S   S S S S S S S S S S S S S S S S
|---------------------------------|-----------------------------------|
|---------------------------------|-----------------------------------|
|---------------------------------|-----------------------------------|
|---------------------------------|-8-8-8-8-8-8-8-8-8-8-8-8-8-8-8-8---|
|-9-9-9-9-9-9-9-9-9-9-9-9-9-9-9-9-|-----------------------------------|
|---------------------------------|-----------------------------------|


    S S S S S S S S S S S S S S S S   S S S S S S S S S S S S S S S S
||----------------------------------|-----------------------------------||
||o---------------------------------|-----------------------------------||
||----------------------------------|-----------------------------------||
||----------------------------------|-8-7-7-7-7-7-7-7-7-7-7-7-7-7-7-7---||
||o-9-9-9-9-9-9-9-9-9-9-9-9-9-9-9-9-|-----------------------------------||
||----------------------------------|-----------------------------------||


    S S S S S S S S S S S S S S S S   S S S S S S S S S S S S S S S S
||----------------------------------|-----------------------------------||
||o---------------------------------|-----------------------------------||
||----------------------------------|-----------------------------------||
||----------------------------------|-7-7-7-7-7-7-7-7-7-7-7-7-7-7-7-7---||
||o-9-9-9-9-9-9-9-9-9-9-9-9-9-9-9-9-|-----------------------------------||
||----------------------------------|-----------------------------------||



   S  S  S  S  S  S  S  S  S  S  S  S  S  S  S  S
|-------------------------------------------------|
|-------------------------------------------------|
|-------------------------------------------------|
|-11-11-11-11-11-11-11-11-11-11-11-11-11-11-11-11-|
|-------------------------------------------------|
|-------------------------------------------------|


   S  S  S  S  S  S  S  S S S S S S S S S
|-------------------------------------------|
|-------------------------------------------|
|-------------------------------------------|
|-11-11-11-11-11-11-11-11-8-8-8-8-7-7-7-7---|
|-------------------------------------------|
|-------------------------------------------|


                                    1.        2.
    W      +H     H      W          W         W
||-------|-------------|----------|--------||------|
||o------|--------3----|-2--------|-------o||-6----|
||--3----|-(3)----3----|-2--------|-2------||-6----|
||--4----|-(4)----3----|-2--------|-3------||-6----|
||o-4----|-(4)----1----|-0--------|-3-----o||-4----|
||--2----|-(2)---------|----------|-1------||------|


  Q  E E E E E E   E E E E E E E E   Q  E E E E E E   E E E E E E Q
|----------------|-----------------|----------------|----------------|
|----------------|-----------------|----------------|----------------|
|----------------|-----------------|----------------|----------------|
|-4--------------|-----------------|-4--------------|-------------3--|
|-4--------------|-----------------|-4--------------|-------------3--|
|-2--2-2-2-2-2-2-|-5-5-5-5-6-6-1-1-|-2--2-2-2-2-2-2-|-5-5-5-5-6-6-1--|


  Q  E E E E E E   E E E E E E E E   Q  E E E E E E   Q  E E E E q
|----------------|-----------------|----------------|---------------|
|----------------|-----------------|----------------|---------------|
|----------------|-----------------|-6--------------|---------------|
|-4--------------|-----------------|-6--------------|-8----------5--|
|-4--------------|-----------------|-4--4-4-4-4-4-4-|-8----------5--|
|-2--2-2-2-2-2-2-|-5-5-5-5-6-6-6-6-|----------------|-6--6-6-6-6-3--|


  S S S S S S S S S S S S S S S S   S S S S S S S S S S S S S S S S
|---------------------------------|-----------------------------------|
|---------------------------------|-----------------------------------|
|---------------------------------|-----------------------------------|
|---------------------------------|-8-8-8-8-8-8-8-8-8-8-8-8-8-8-8-8---|
|-9-9-9-9-9-9-9-9-9-9-9-9-9-9-9-9-|-----------------------------------|
|---------------------------------|-----------------------------------|


    S S S S S S S S S S S S S S S S   S S S S S S S S S S S S S S S S
||----------------------------------|-----------------------------------||
||o---------------------------------|-----------------------------------||
||----------------------------------|-----------------------------------||
||----------------------------------|-8-7-7-7-7-7-7-7-7-7-7-7-7-7-7-7---||
||o-9-9-9-9-9-9-9-9-9-9-9-9-9-9-9-9-|-----------------------------------||
||----------------------------------|-----------------------------------||


    S S S S S S S S S S S S S S S S   S S S S S S S S S S S S S S S S
||----------------------------------|-----------------------------------||
||o---------------------------------|-----------------------------------||
||----------------------------------|-----------------------------------||
||----------------------------------|-7-7-7-7-7-7-7-7-7-7-7-7-7-7-7-7---||
||o-9-9-9-9-9-9-9-9-9-9-9-9-9-9-9-9-|-----------------------------------||
||----------------------------------|-----------------------------------||

   S  S  S  S  S  S  S  S  S  S  S  S  S  S  S  S
|-------------------------------------------------|
|-------------------------------------------------|
|-------------------------------------------------|
|-11-11-11-11-11-11-11-11-11-11-11-11-11-11-11-11-|
|-------------------------------------------------|
|-------------------------------------------------|


   S  S  S  S  S  S  S  S S S S S S S S S
|-------------------------------------------|
|-------------------------------------------|
|-------------------------------------------|
|-11-11-11-11-11-11-11-11-8-8-8-8-7-7-7-7---|
|-------------------------------------------|
|-------------------------------------------|


  W
|----------*|----|
|----------*|----|
|----------*|----|
|-4--------*|----|
|-4--------*|----|
|-2--------*|----|




--------------------------------------------------------------------------------


Duration Legend
---------------
W - whole; H - half; Q - quarter; E - 8th; S - 16th; T - 32nd; X - 64th; a - acciaccatura
+ - note tied to previous; . - note dotted; .. - note double dotted
Uncapitalized letters represent notes that are staccato (1/2 duration)
Irregular groupings are notated above the duration line
Duration letters will always appear directly above the note/fret number it represents the
duration for.  Duration letters with no fret number below them represent rests.  Multi-
bar rests are notated in the form Wxn, where n is the number of bars to rest for.  Low
melody durations appear below the staff

Tablature Legend
----------------
 h   - hammer-on
 p   - pull-off
 b   - bend
 pb  - pre-bend
 r   - bend release (if no number after the r, then release immediately)
 /\  - slide into or out of (from/to "nowhere")
 s   - legato slide
 S   - shift slide
 - natural harmonic
[n]  - artificial harmonic
n(n) - tapped harmonic
 ~   - vibrato
 tr  - trill
 T   - tap
 TP  - trem. picking
 PM  - palm muting
\n/  - tremolo bar dip; n = amount to dip
 \n  - tremolo bar down
 n/  - tremolo bar up
/n\  - tremolo bar inverted dip
 =   - hold bend; also acts as connecting device for hammers/pulls
 <> - volume swell (louder/softer)
 x   - on rhythm slash represents muted slash
 o   - on rhythm slash represents single note slash

Misc Legend
-----------
 |  - bar
||  - double bar
||o - repeat start
o|| - repeat end
*|  - double bar (ending)
 :  - bar (freetime)
 $  - Segno
 &  - Coda
Tempo markers -  = BPM(8/16=s8/s16), where s8 = swing 8ths, s16 = swing 16ths





Comments


Popular Berzerker tabs & chords
All About You Bass Tabs
Reality Bass Tabs
Cannible Rights Tabs
Compromise Tabs
Disregard Tabs
Farewell Tabs
Forever Tabs
Forever 1 Tabs
Ignorance Tabs
The Principles And Practices Of Embalming Tabs


Song lyrics



↑ Back to top | Tablatures and chords are parodies/interpretations of the original songs. You may use it for private study, scholarship, research or language learning purposes only
© 2014 AZChords.com Contact us | Privacy policy | DMCA | Add/correct tabs | Request tabs | Top 50 tabs