>
 >
Deform

Deform Bass Tabs

Berzerker - Deform chords, tabs, tablatures, lyrics

Guitar lessons | Add/correct | Request | Top 50 tabs Artists:  A B C D E F G H I J K L M N O P Q R S T U V W X Y Z 0-9

Deform Bass Tabs – Berzerker

CD, Sheet music, Poster

Do you like Deform? Share with your friends now
Bass TabsTabs
4/4
bass tuned a
  E E E E E E E E   E E E E E E S S S S   E E E E E E E E   E E E E E E E E
|-----------------|---------------------|-----------------|------------------|
|-----------------|---------------------|-----------------|------------------|
|-----------------|---------------------|-----------------|------------------|
|-----------------|---------------------|---------------0-|------------------|
|-0-0-0-0-0-0-0-0-|-0-0-0-0-0-0-0-0-0-0-|-0-0-0-0-0-0-0---|-0-0-0-0-1-0-1-1--|


  E E E E E E E E   E E E E E E E E   E E E E E E E E   E E E E Q  Q
|-----------------|-----------------|-----------------|---------------||
|-----------------|-----------------|-----------------|---------------||
|-----------------|-----------------|-----------------|---------------||
|-----------------|---------------2-|-----------------|---------------||
|-0-0-0-0-0-0-0-0-|-0-0-0-0-0-0-0---|-0-0-0-0-0-0-0-0-|-0-0-0-0-1-----||



    S S S S S S S S S S S S S S S S   S S S S S S S S  S  S  S  S  S  S  S  S
||o---------------------------------|------------------------------------------|
||----------------------------------|------------------------------------------|
||----------------------------------|------------------------------------------|
||o-7-7-7-7-7-7-7-7-7-7-7-7-7-7-7-7-|-8-8-8-8-8-8-8-8-10-10-10-10-10-10-10-10--|
||----------------------------------|------------------------------------------|


  S S S S S S S S S S S S S S S S   S S S S S S S S S S S S S S S S
|---------------------------------|-----------------------------------o||
|---------------------------------|------------------------------------||
|---------------------------------|------------------------------------||
|-7-7-7-7-7-7-7-7-7-7-7-7-7-7-7-7-|-8-8-8-8-8-8-8-8-5-5-5-5-5-5-5-5---o||
|---------------------------------|------------------------------------||


    S S S S S S S S S S S S S S S S   S S S S S S S S S S S S S S S S
||o---------------------------------|----------------------------------|
||----------------------------------|----------------------------------|
||--------------------------5-5-5-5-|---------5-5-5-5------------------|
||o-7-7-7-7-5-5-5-5-8-8-8-8---------|-7-7-7-7---------5-5-5-5-8-8-8-8--|
||----------------------------------|----------------------------------|


  
  S S S S S S S S e E e E    S  S  S  S  S  S  S  S S S S S S S S S
|-------------------------|--------------------------------------------o||
|-------------------------|---------------------------------------------||
|-------------------------|---------------------------------------------||
|-7-7-7-7-7-7-7-7-5---5---|-11-11-11-11-11-11-11-11-8-8-8-8-8-8-8-8----o||
|-------------------------|---------------------------------------------||




  Wx8
|--------|
|--------|
|--------|
|--------|
|--------|


    S S S S S S S S S S S S S S S S   S S S S S S S S S S S S S S S S
||o---------------------------------|----------------------------------|
||----------------------------------|----------------------------------|
||--------------------------5-5-5-5-|---------5-5-5-5------------------|
||o-7-7-7-7-5-5-5-5-8-8-8-8---------|-7-7-7-7---------5-5-5-5-8-8-8-8--|
||----------------------------------|----------------------------------|



  S S S S S S S S e E e E    S  S  S  S  S  S  S  S S S S S S S S S
|-------------------------|--------------------------------------------o||
|-------------------------|---------------------------------------------||
|-------------------------|---------------------------------------------||
|-7-7-7-7-7-7-7-7-5---5---|-11-11-11-11-11-11-11-11-8-8-8-8-8-8-8-8----o||
|-------------------------|---------------------------------------------||



    W          H    H      W          W
||o----------|-----------|----------|------o||
||-----------|-----------|----------|-------||
||-----------|-----------|----------|-------||
||o----------|-----------|----------|------o||
||--0--------|-1----3----|-0--------|-1-----||


   
    E E E E E E E E   E E E E E E Q      Q  E E E E E E
||o-----------------|----------------o||----------------|
||------------------|-----------------||----------------|
||------------------|-----------------||----------------|
||o-----------------|-------------3--o||-4--------------|
||--4-3-4-6-5-4-1-4-|---4-3-4---4-----||----4-6-5-4-3-4-|


  E E E E E E Q   Q E E E E E E            W
|---------------|---------------|---------------|
|---------------|---------------|---------------|
|---------------|---------------|---------------|
|-------------3-|-4-------------|---------------|
|---4-1-4---4---|---4-6-5-4-3-4-|---------------|


    
    Q  S S S S S S S S S S S S   S S S S S S S S S S S S S S S S
||o----------------------------|---------------------------------|
||-----------------------------|---------------------------------|
||-----7-7-5-5-4-4-9-9-5-5-7-7-|-7-7-7-7-9-9-5-5-5-5-7-7-4-4-4-4-|
||o-4--------------------------|---------------------------------|
||-----------------------------|---------------------------------|


  Q  S S S S S S S S S S S S   S S S S S S S S  q     q     4x
|----------------------------|-----------------------------o||
|----------------------------|------------------------------||
|----7-7-5-5-4-4-9-9-5-5-7-7-|-7-7-7-7-9-9-5-5--------------||
|-4--------------------------|------------------4-----4----o||
|----------------------------|------------------------------||


   
    E E E E E E E E   +E  E E Q E E E   E E E E Q E E E E Q E E E E
||o-----------------|-----------------|--------------------------------o||
||------------------|-----------------|---------------------------------||
||------------------|-----------------|---------------------------------||
||o---------------3-|-(3)-------------|---------5-1-2-1-0-5------------o||
||--2-5-6-5-3-0-5---|-----5-3-6-5-3-0-|-2-5-6-5-------------3-5-3-0-----||


    E E E E E E E E   +E  E E Q  E E E   E E E E Q  E E   E E Q  E E E E 4x

||o-----------------|------------------|----------------|---------------o||
||------------------|------------------|----------------|----------------||
||------------------|------------------|----------------|----------------||
||o---------------3-|-(3)--------------|---------5--1-2-|-1-0-5---------o||
||--2-5-6-5-3-0-5---|-----5-3-6--5-3-0-|-2-5-6-5--------|--------3-5-3-0-||


    Q  E E E E E E   E E E E E E E E   Q  E E E E E E   E E E E E E Q
||o----------------|-----------------|----------------|---------------|
||-----------------|-----------------|----------------|---------------|
||-----------------|-----------------|----------------|---------------|
||o-4--------------|-----------------|-4--------------|-------------3-|
||-----2-2-2-2-2-2-|-5-5-5-5-6-6-1-1-|----2-2-2-2-2-2-|-5-5-5-5-6-6---|


  Q  E E E E E E   E E E E E E E E   Q E E E E E E   Q E E E E q
|----------------|-----------------|---------------|----------------o||
|----------------|-----------------|---------------|-----------------||
|----------------|-----------------|-6-------------|-----------------||
|-4--------------|-----------------|---4-4-4-4-4-4-|-8---------5----o||
|----2-2-2-2-2-2-|-5-5-5-5-6-6-6-6-|---------------|---6-6-6-6-------||


  S S S S S S S S S S S S S S S S   S S S S S S S S S S S S S S S S
|---------------------------------|-----------------------------------|
|---------------------------------|-----------------------------------|
|---------------------------------|-8-8-8-8-8-8-8-8-8-8-8-8-8-8-8-8---|
|-9-9-9-9-9-9-9-9-9-9-9-9-9-9-9-9-|-----------------------------------|
|---------------------------------|-----------------------------------|


    S S S S S S S S S S S S S S S S   S S S S S S S S S S S S S S S S
||o---------------------------------|-----------------------------------||
||----------------------------------|-----------------------------------||
||----------------------------------|-8-7-7-7-7-7-7-7-7-7-7-7-7-7-7-7---||
||o-9-9-9-9-9-9-9-9-9-9-9-9-9-9-9-9-|-----------------------------------||
||----------------------------------|-----------------------------------||


    S S S S S S S S S S S S S S S S   S S S S S S S S S S S S S S S S
||o---------------------------------|-----------------------------------||
||----------------------------------|-----------------------------------||
||----------------------------------|-7-7-7-7-7-7-7-7-7-7-7-7-7-7-7-7---||
||o-9-9-9-9-9-9-9-9-9-9-9-9-9-9-9-9-|-----------------------------------||
||----------------------------------|-----------------------------------||



   S  S  S  S  S  S  S  S  S  S  S  S  S  S  S  S
|-------------------------------------------------|
|-------------------------------------------------|
|-11-11-11-11-11-11-11-11-11-11-11-11-11-11-11-11-|
|-------------------------------------------------|
|-------------------------------------------------|


   S  S  S  S  S  S  S  S S S S S S S S S
|-------------------------------------------|
|-------------------------------------------|
|-11-11-11-11-11-11-11-11-8-8-8-8-7-7-7-7---|
|-------------------------------------------|
|-------------------------------------------|


                                    1.        2.
    W      +H     H      W          W         W
||o------|-------------|----------|-------o||------|
||-------|-------------|----------|--------||------|
||-------|-------------|----------|--------||------|
||o------|--------1----|-0--------|-------o||-4----|
||--2----|-(2)---------|----------|-1------||------|


  Q  E E E E E E   E E E E E E E E   Q  E E E E E E   E E E E E E Q
|----------------|-----------------|----------------|----------------|
|----------------|-----------------|----------------|----------------|
|----------------|-----------------|----------------|----------------|
|-4--------------|-----------------|-4--------------|-------------3--|
|----2-2-2-2-2-2-|-5-5-5-5-6-6-1-1-|----2-2-2-2-2-2-|-5-5-5-5-6-6----|


  Q  E E E E E E   E E E E E E E E   Q  E E E E E E   Q  E E E E q
|----------------|-----------------|----------------|---------------|
|----------------|-----------------|----------------|---------------|
|----------------|-----------------|-6--------------|---------------|
|-4--------------|-----------------|----4-4-4-4-4-4-|-8----------5--|
|----2-2-2-2-2-2-|-5-5-5-5-6-6-6-6-|----------------|----6-6-6-6----|


  S S S S S S S S S S S S S S S S   S S S S S S S S S S S S S S S S
|---------------------------------|-----------------------------------|
|---------------------------------|-----------------------------------|
|---------------------------------|-8-8-8-8-8-8-8-8-8-8-8-8-8-8-8-8---|
|-9-9-9-9-9-9-9-9-9-9-9-9-9-9-9-9-|-----------------------------------|
|---------------------------------|-----------------------------------|


    S S S S S S S S S S S S S S S S   S S S S S S S S S S S S S S S S
||o---------------------------------|-----------------------------------||
||----------------------------------|-----------------------------------||
||----------------------------------|-8-7-7-7-7-7-7-7-7-7-7-7-7-7-7-7---||
||o-9-9-9-9-9-9-9-9-9-9-9-9-9-9-9-9-|-----------------------------------||
||----------------------------------|-----------------------------------||


    S S S S S S S S S S S S S S S S   S S S S S S S S S S S S S S S S
||o---------------------------------|-----------------------------------||
||----------------------------------|-----------------------------------||
||----------------------------------|-7-7-7-7-7-7-7-7-7-7-7-7-7-7-7-7---||
||o-9-9-9-9-9-9-9-9-9-9-9-9-9-9-9-9-|-----------------------------------||
||----------------------------------|-----------------------------------||

   S  S  S  S  S  S  S  S  S  S  S  S  S  S  S  S
|-------------------------------------------------|
|-------------------------------------------------|
|-11-11-11-11-11-11-11-11-11-11-11-11-11-11-11-11-|
|-------------------------------------------------|
|-------------------------------------------------|


   S  S  S  S  S  S  S  S S S S S S S S S
|-------------------------------------------|
|-------------------------------------------|
|-11-11-11-11-11-11-11-11-8-8-8-8-7-7-7-7---|
|-------------------------------------------|
|-------------------------------------------|


  W
|----------*|----|
|----------*|----|
|----------*|----|
|----------*|----|
|-2--------*|----|





Comments


Popular Berzerker tabs & chords
Chronological Order Of Putrefaction Bass Tabs
Last Mistake Bass Tabs
Never Hated More Bass Tabs
Slit Down Bass Tabs
Cannbal Rights Tabs
Chronological Order Of Putrefaction Tabs
Humanity Tabs
Ignorance Tabs
Last Mistake Tabs
Reality Tabs


Song lyrics



↑ Back to top | Tablatures and chords are parodies/interpretations of the original songs. You may use it for private study, scholarship, research or language learning purposes only
© 2014 AZChords.com Contact us | Privacy policy | DMCA | Add/correct tabs | Request tabs | Top 50 tabs