>
 >
Burnt

Burnt Guitar Tabs

Berzerker - Burnt chords, tabs, tablatures, lyrics

Guitar lessons | Add/correct | Request | Top 50 tabs Artists:  A B C D E F G H I J K L M N O P Q R S T U V W X Y Z 0-9

Burnt Guitar Tabs – Berzerker

CD, Sheet music, Poster

Do you like Burnt? Share with your friends now
TabsTabs v2
Burnt- BERZERKER
This song is tabbed 100% correct, just try! Enjoy and peace out!

Gtr I (A D G C E A) - 'Rhythm'

4/4
    Gtrs I, II
            PM|             PM----|           PM|             PM----|
    S S S S S S S S S S S S S S S S   S S S S S S S S S S S S S S S S
||----------------------------------|---------------------------------|
||o---------------------------------|---------------------------------|
||----------------------------------|---------------------------------|
||----------------------5-4---------|---------------------5-4---------|
||o-3-3-3-3-6-6-3-3-3-3-----6-6-6-6-|-2-2-2-2-6-6-3-3-3-3-----6-6-6-6-|
||----------------------------------|---------------------------------|


          PM|
  S S S S S S S S S S S S S S S S
|---------------------------------|
|---------------------------------|
|---------------------------------|
|---------------------5-4---------|
|-2-2-2-2-6-6-3-3-3-3-----6-6-6-6-|
|---------------------------------|


  S S S S S S S S S S S S S S S S          W
|----------------------------------||-----------|
|---------------------------------o||-----------|
|----------------------------------||-----------|
|-----------------4-4-4------------||-----------|
|-0-0-0-2-2-2-3-3-------3-3-3-2-2-o||-----------|
|----------------------------------||-----------|


  W         S S S S S S S S S S S S S S S S
|-------||----------------------------------|
|-------||o---------------------------------|
|-------||----------------------------------|
|-------||----------------------5-4---------|
|-------||o-3-3-3-3-6-6-3-3-3-3-----6-6-6-6-|
|-------||----------------------------------|


  S S S S S S S S S S S S S S S S
|-----------------------------------|
|-----------------------------------|
|-----------------------------------|
|---------------------5-4-----------|
|-2-2-2-2-6-6-3-3-3-3-----6-6-6-6---|
|-----------------------------------|


  S S S S S S S S S S S S S S S S   S S S S S S S S S S S S S S S S
|---------------------------------|------------------------------------||
|---------------------------------|-----------------------------------o||
|---------------------------------|------------------------------------||
|---------------------5-4---------|-----------------4-4-4--------------||
|-2-2-2-2-6-6-3-3-3-3-----6-6-6-6-|-0-0-0-2-2-2-3-3-------3-3-3-2-2---o||
|---------------------------------|------------------------------------||


   4/4
    |-3-| |-3-| |-3-| |-3-|   |-3-| |-3-| |-3-| |-3-|
    E E E E E E E E E E E E   E E E E E E E E E E E E
||--------------------------|-------------------------|
||o-------------------------|-------------------------|
||--------------------------|-------------------------|
||--------------------------|-------------------------|
||o-------------------------|-------------------------|
||--0-0-0-0-0-0-0-0-0-0-0-0-|-0-0-0-1-1-1-0-0-0-5-5-5-|


  |-3-|  |-3-|  |-3-|  |-3-|   |-3-|  |-3-|  |-3-|  |-3-|
  E E E  E E E  E E E  E E E   E E E  E E E  E E E  E E E
|----------------------------|-------------------------------|
|----------------------------|-------------------------------|
|----------------------------|-------------------------------|
|----------------------------|-------------------------------|
|----------------------------|-------------------------------|
|-4-4-4--4-4-4--4-4-4--4-4-4-|-4-4-4--7-7-7--0-0-0--4-4-4----|


  |-3-|  |-3-|  |-3-|  |-3-|   |-3-|  |-3-|  |-3-|  |-3-|
  E E E  E E E  E E E  E E E   E E E  E E E  E E E  E E E
|----------------------------|-------------------------------|
|----------------------------|-------------------------------|
|----------------------------|-------------------------------|
|----------------------------|-------------------------------|
|----------------------5-----|-4--------------------5--------|
|-3-3-3--3-3-3--3-3-3----3-3-|---3-3--3-3-3--3-3-3----3-3----|


  |-3-| |-3-| |-3-| |-3-|   |-3-|  |-3-|  |-3-|  |-3-|
  E E E E E E E E E E E E   E E E  E E E  E E E  E E E
|-------------------------|--------------------------------||
|-------------------------|-------------------------------o||
|-------------------------|--------------------------------||
|-------------------------|--------------------------------||
|-4-----------------5-5-5-|-4-4-4--1-1-1--4-4-4--5-5-5----o||
|---3-3-3-3-3-3-3-3-------|--------------------------------||


  |-3-| |-3-| |-3-| |-3-|   |-3-| |-3-| |-3-| |-3-|
  E E E E E E E E E E E E   E E E E E E E E E E E E
|-------------------------|----------------------------|
|-------------------------|----------------------------|
|-------------------------|----------------------------|
|-2-2-2-2-2-2-2-2-2-2-2-2-|-2-2-2-3-3-3-2-2-2----------|
|-------------------------|----------------------------|
|-------------------------|-------------------5-5-5----|


  |-3-| |-3-| |-3-| |-3-|   |-3-| |-3-| |-3-| |-3-|
  E E E E E E E E E E E E   E E E E E E E E E E E E
|-------------------------|----------------------------|
|-------------------------|----------------------------|
|-------------------------|----------------------------|
|-------------------6-6-6-|-------6-6-6-------6-6-6----|
|-------------------------|-------------7-7-7----------|
|-4-4-4-4-4-4-4-4-4-------|-4-4-4----------------------|


  |-3-| |-3-| |-3-| |-3-|   |-3-| |-3-| |-3-| |-3-|
  E E E E E E E E E E E E   E E E E E E E E E E E E
|-------------------------|----------------------------|
|-------------------------|----------------------------|
|-------------------7-----|-6-----------------7--------|
|-5-5-5-5-5-5-5-5-5---5-5-|---5-5-5-5-5-5-5-5---5-5----|
|-------------------------|----------------------------|
|-------------------------|----------------------------|


  |-3-| |-3-| |-3-| |-3-|   |-3-| |-3-| |-3-| |-3-|
  E E E E E E E E E E E E   E E E E E E E E E E E E
|-------------------------|----------------------------|
|-------------------------|----------------------------|
|-6-----------------7-7-7-|-6-6-6-------6-6-6-7-7-7----|
|---5-5-5-5-5-5-5-5-------|-------8-8-8----------------|
|-------------------------|----------------------------|
|-------------------------|----------------------------|


  |-3-| |-3-| |-3-| |-3-|   |-3-| |-3-| |-3-| |-3-|
  E E E E E E E E E E E E   E E E E E E E E E E E E
|-------------------------|----------------------------|
|-------------------------|----------------------------|
|-------------------------|----------------------------|
|-------------------------|----------------------------|
|-------------------------|----------------------------|
|-0-0-0-0-0-0-0-0-0-0-0-0-|-0-0-0-1-1-1-0-0-0-5-5-5----|


  |-3-| |-3-| |-3-| |-3-|   |-3-| |-3-| |-3-| |-3-|
  E E E E E E E E E E E E   E E E E E E E E E E E E
|-------------------------|----------------------------|
|-------------------------|----------------------------|
|-------------------------|----------------------------|
|-------------------------|----------------------------|
|-------------------------|----------------------------|
|-4-4-4-4-4-4-4-4-4-4-4-4-|-4-4-4-7-7-7-0-0-0-4-4-4----|


  |-3-| |-3-| |-3-| |-3-|   |-3-| |-3-| |-3-| |-3-|
  E E E E E E E E E E E E   E E E E E E E E E E E E
|-------------------------|----------------------------|
|-------------------------|----------------------------|
|-------------------------|----------------------------|
|-------------------------|----------------------------|
|-------------------5-----|-4-----------------5--------|
|-3-3-3-3-3-3-3-3-3---3-3-|---3-3-3-3-3-3-3-3---3-3----|


  |-3-| |-3-| |-3-| |-3-|   |-3-| |-3-| |-3-| |-3-|
  E E E E E E E E E E E E   E E E E E E E E E E E E
|-------------------------|----------------------------|
|-------------------------|----------------------------|
|-------------------------|----------------------------|
|-------------------------|----------------------------|
|-4-----------------5-5-5-|-4-4-4-1-1-1-4-4-4-5-5-5----|
|---3-3-3-3-3-3-3-3-------|----------------------------|


  Wx32
|---------|
|---------|
|---------|
|---------|
|---------|
|---------|


     PM---------------------|
     |-3-| |-3-|  |-3-| |-3-|
     E E E E E E  E E E E E E          S S S S S S S S S S S S  E E
||------------------------------||-||----------------------------------|
||o----------------------------o||-||o---------------------------------|
||------------------------------||-||----------------------------------|
||--10-8-7-9-8-7-10-8-7-9-8-7---||-||----------------------------------|
||o-10-8-7-9-8-7-10-8-7-9-8-7--o||-||o--------------------------8p6----|
||---8-6-5-7-6-5--8-6-5-7-6-5---||-||--5-5-5-5-5-5-5-5-5-5-5-5---------|


                                           PM---------------------|
                                           |-3-| |-3-|  |-3-| |-3-|
  S S S S S S S S S S S S S S S S          E E E E E E  E E E E E E     8x
|----------------------------------||-||--------------------------------||
|---------------------------------o||-||o------------------------------o||
|----------------------------------||-||--------------------------------||
|----------------------------------||-||--10-8-7-9-8-7-10-8-7-9-8-7-----||
|---------------------------------o||-||o-10-8-7-9-8-7-10-8-7-9-8-7----o||
|-6-6-6-6-6-6-6-6-4-4-4-4-4-4-4-4--||-||---8-6-5-7-6-5--8-6-5-7-6-5-----||



  S S S S S S S S S S S S E E   S S S S S S S S S S S S S S S S
|-----------------------------|------------------------------------|
|-----------------------------|------------------------------------|
|-----------------------------|------------------------------------|
|-----------------------------|------------------------------------|
|-------------------------8p6-|------------------------------------|
|-5-5-5-5-5-5-5-5-5-5-5-5-----|-6-6-6-6-6-6-6-6-4-4-4-4-4-4-4-4----|


    |-3-| |-3-| |-3-| |-3-|   |-3-| |-3-| |-3-| |-3-|
    E E E E E E E E E E E E   E E E E E E E E E E E E
||--------------------------|----------------------------|
||o-------------------------|----------------------------|
||--------------------------|----------------------------|
||--------------------------|----------------------------|
||o-------------------------|----------------------------|
||--0-0-0-0-0-0-0-0-0-0-0-0-|-0-0-0-1-1-1-0-0-0-5-5-5----|


  |-3-| |-3-| |-3-| |-3-|   |-3-| |-3-| |-3-| |-3-|
  E E E E E E E E E E E E   E E E E E E E E E E E E
|-------------------------|----------------------------|
|-------------------------|----------------------------|
|-------------------------|----------------------------|
|-------------------------|----------------------------|
|-------------------------|----------------------------|
|-4-4-4-4-4-4-4-4-4-4-4-4-|-4-4-4-7-7-7-0-0-0-4-4-4----|


  |-3-| |-3-| |-3-| |-3-|   |-3-| |-3-| |-3-| |-3-|
  E E E E E E E E E E E E   E E E E E E E E E E E E
|-------------------------|----------------------------|
|-------------------------|----------------------------|
|-------------------------|----------------------------|
|-------------------------|----------------------------|
|-------------------5-----|-4-----------------5--------|
|-3-3-3-3-3-3-3-3-3---3-3-|---3-3-3-3-3-3-3-3---3-3----|


  |-3-| |-3-| |-3-| |-3-|   |-3-| |-3-| |-3-| |-3-|
  E E E E E E E E E E E E   E E E E E E E E E E E E
|-------------------------|-----------------------------||
|-------------------------|----------------------------o||
|-------------------------|-----------------------------||
|-------------------------|-----------------------------||
|-4-----------------5-5-5-|-4-4-4-1-1-1-4-4-4-5-5-5----o||
|---3-3-3-3-3-3-3-3-------|-----------------------------||


  |-3-| |-3-| |-3-| |-3-|   |-3-| |-3-| |-3-| |-3-|
  E E E E E E E E E E E E   E E E E E E E E E E E E
|-------------------------|----------------------------|
|-------------------------|----------------------------|
|-------------------------|----------------------------|
|-2-2-2-2-2-2-2-2-2-2-2-2-|-2-2-2-3-3-3-2-2-2----------|
|-------------------------|----------------------------|
|-------------------------|-------------------5-5-5----|


  |-3-| |-3-| |-3-| |-3-|   |-3-| |-3-| |-3-| |-3-|
  E E E E E E E E E E E E   E E E E E E E E E E E E
|-------------------------|----------------------------|
|-------------------------|----------------------------|
|-------------------------|----------------------------|
|-------------------6-6-6-|-------6-6-6-------6-6-6----|
|-------------------------|-------------7-7-7----------|
|-4-4-4-4-4-4-4-4-4-------|-4-4-4----------------------|


  |-3-| |-3-| |-3-| |-3-|   |-3-| |-3-| |-3-| |-3-|
  E E E E E E E E E E E E   E E E E E E E E E E E E
|-------------------------|----------------------------|
|-------------------------|----------------------------|
|-------------------7-----|-6-----------------7--------|
|-5-5-5-5-5-5-5-5-5---5-5-|---5-5-5-5-5-5-5-5---5-5----|
|-------------------------|----------------------------|
|-------------------------|----------------------------|


  |-3-| |-3-| |-3-| |-3-|   |-3-| |-3-| |-3-| |-3-|
  E E E E E E E E E E E E   E E E E E E E E E E E E
|-------------------------|----------------------------|
|-------------------------|----------------------------|
|-6-----------------7-7-7-|-6-6-6-------6-6-6-7-7-7----|
|---5-5-5-5-5-5-5-5-------|-------8-8-8----------------|
|-------------------------|----------------------------|
|-------------------------|----------------------------|


  |-3-| |-3-| |-3-| |-3-|   |-3-| |-3-| |-3-| |-3-|
  E E E E E E E E E E E E   E E E E E E E E E E E E
|-------------------------|----------------------------|
|-------------------------|----------------------------|
|-------------------------|----------------------------|
|-------------------------|----------------------------|
|-------------------------|----------------------------|
|-0-0-0-0-0-0-0-0-0-0-0-0-|-0-0-0-1-1-1-0-0-0-5-5-5----|


  |-3-| |-3-| |-3-| |-3-|   |-3-| |-3-| |-3-| |-3-|
  E E E E E E E E E E E E   E E E E E E E E E E E E
|-------------------------|----------------------------|
|-------------------------|----------------------------|
|-------------------------|----------------------------|
|-------------------------|----------------------------|
|-------------------------|----------------------------|
|-4-4-4-4-4-4-4-4-4-4-4-4-|-4-4-4-7-7-7-0-0-0-4-4-4----|


  |-3-| |-3-| |-3-| |-3-|   |-3-| |-3-| |-3-| |-3-|
  E E E E E E E E E E E E   E E E E E E E E E E E E
|-------------------------|----------------------------|
|-------------------------|----------------------------|
|-------------------------|----------------------------|
|-------------------------|----------------------------|
|-------------------5-----|-4-----------------5--------|
|-3-3-3-3-3-3-3-3-3---3-3-|---3-3-3-3-3-3-3-3---3-3----|


  |-3-| |-3-| |-3-| |-3-|   |-3-| |-3-| |-3-| |-3-|
  E E E E E E E E E E E E   E E E E E E E E E E E E
|-------------------------|----------------------------|
|-------------------------|----------------------------|
|-------------------------|----------------------------|
|-------------------------|----------------------------|
|-4-----------------5-5-5-|-4-4-4-1-1-1-4-4-4-5-5-5----|
|---3-3-3-3-3-3-3-3-------|----------------------------|


  W                 +W
|----------------|---------*|
|----------------|---------*|
|----------------|---------*|
|-2--------------|--(2)----*|
|-2--------------|--(2)----*|
|-0--------------|--(0)----*|





Comments


Popular Berzerker tabs & chords
Massacre Bass Tabs
Reality Bass Tabs
Slit Down Bass Tabs
Compromise Tabs
Deform Tabs
Farewell 1 Tabs
February Tabs
Forever 1 Tabs
Last Mistake Tabs
Pain 1 Tabs


Song lyrics



↑ Back to top | Tablatures and chords are parodies/interpretations of the original songs. You may use it for private study, scholarship, research or language learning purposes only
© 2014 AZChords.com Contact us | Privacy policy | DMCA | Add/correct tabs | Request tabs | Top 50 tabs