>
 >
Thrill Is Gone

Thrill Is Gone Guitar Tabs

Bernard Fanning - Thrill Is Gone chords, tabs, tablatures, lyrics

Guitar lessons | Add/correct | Request | Top 50 tabs Artists:  A B C D E F G H I J K L M N O P Q R S T U V W X Y Z 0-9

Thrill Is Gone Guitar Tabs – Bernard Fanning

CD, Sheet music, Poster

Do you like Thrill Is Gone? Share with your friends now
ChordsTabsUkulele
INTRO
 
guitar                      
E1|-----0-0-----0-0-----0-0---------|---------------------------------|
B1|-----0-0-----0-0-----0-0---0-----|---------------------------------|
G1|-----3-3-----3-3-----3-3-3-------|---------------------------------|
D1|-2---2-2-2---2-2-2---2-2-2---2-2-|-----2-4-2-----------------------|
A1|-2---2-2-2---2-2-2---2-2-2---2-2-|-2-4-------4---------------------|
E1|-0---0-0-0---0-0-0---0-0-0---0-0-|-------------3^--0---------------|
    d   d u d   d u d   d u d   d u            
    1   +   2   +   3   +   4   +     1   +   2   +   3   +   4   + 


banjo - for guitar 
E1|---------------------------------|---------------------------------|
B1|---------------------------------|-----5-7-5---8---5---------------|
G1|-----3~------3~------3~--3/4-----|-4-6-------6---------------------|
D1|---------------------------------|---------------------------------|
A1|---------------------------------|---------------------------------|
E1|---------------------------------|-------------3^--0---------------| x 2



VERSE


alternate between A and E, 2 bars of each....


  Sure was a hell of a mistake I made...


     A           E  
E1|-[0]----------0---------|
B1|-[0]-----2----0---------|
G1|--6--OR--2----1---------|
D1|--7------2----2---------|
A1|--7------0----2---------|
E1|--0-----------0---------|



         I  stand  accused of losing my head...


guitar
     G#m                 A                    B                  B 
E1|--0----------------|--0-----------------|--0---------------|--0--------------|
B1|--0----------------|--0-----------------|--0---------------|--0--------------|
G1|--4----------------|--5-----------------|--8---------------|--8--------------|
D1|--6----------------|--7-----------------|--9---------------|--9--------------|
A1|--6----------------|--7-----------------|--9---------------|--9--------------|
E1|-------------------|--------------------|------------------|-----------------| 


banjo overlay - for guitar
     G#m                 A                   B                  B 
E1|---7~--------------|--9~----------------|----------9~------|--11~------------|
B1|---9~--------------|--10~---------------|--12~----12~------|--12~------------|
G1|---8~--------------|--9~----------------|--11~----11~------|--11~------------|
D1|-------------------|--------------------|--9~--------------|-----------------|
A1|-------------------|--------------------|------------------|-----------------|
E1|-------------------|--------------------|------------------|-----------------|  
      1 + 2 + 3 + 4 +    1 + 2 + 3 + 4 +      1 + 2 + 3 + 4 +   1 + 2 + 3 + 4 +



CHORUS (alternate optional barr chords shown in brackets)


    Sits so high on the city walls


     E       B       A                                        E   B   A
E1|--0---0---0---0---0---0---0---0---0---0---0---0---|       [0] [7] [5]
B1|--0---0---0---0---0---0---0---0---0---0---0---0---|       [0] [7] [5]
G1|--1---1---8---8---6---6---6---6---6---6---6---6---|       [1] [8] [6]
D1|--2---2---9---9---7---7---7---7---7---7---7---7---|       [2] [9] [7]
A1|--2-------9-------7-------7-------7-------7-------|       [2] [9] [7]
E1|--0------[7]-----[5]-----[5]-----[5]-----[5]------| x 3   [0] [7] [5]


banjo overlay - for guitar
E1|-------7~------7~-------9~------9~------9~--------|
B1|------7~------7~-----10~---10~------10~----12~-10~|
G1|--9~------8~-------9~-----9~--9~--9~--9~--9~--9---|
D1|--------------------------------------------------|
A1|--------------------------------------------------|
E1|--------------------------------------------------| 
     1   +   2   +   3   +   4   +   5   +   6   +  


     cleaner,   sweeter,     brighter..


     B           C#m          D               A               E           
E1|--0-----------4---------|----------------|-5-------------|-0------------------------------------------|
B1|--0-----------5---------|--7-------------|-5-------------|-0------------------------------------------|
G1|--8-----------6---------|--7-------------|-6-------------|-1------------------------------------------|
D1|--9-----------6---------|--7-------------|-7-------------|-2------------------------------------------|
A1|--9-----------4---------|--5-------------|-7-------------|-2------------------------------------------|
E1|-[7]--------------------|----------------|-5-------------|-0------------------------------------------| 


banjo overlay - for guitar                   
E1|-------7~----------9~---|------10~-------|-9-------------|--------------------------------------------|----
B1|-----7~----------9~-----|----10~---------|-10------------|--------------------------------------------|----
G1|---8~----------9~-------|--11~-----------|-9-------------|--------------------------------------------|----
D1|------------------------|----------------|---------------|---------------------12-12-12-12-12-11-9----|----
A1|------------------------|----------------|---------------|--------------------------------------------|-12-
E1|------------------------|----------------|---------------|--------------------------------------------|---- 
     1  +  2  +  3  +  4  +  1 + 2 + 3 + 4 + 1 + 2 + 3 + 4 +  1    +    2    +    3     +     4    +   



VERSE 2


 I can sense trouble...


    A           E  
E1|-[0]----------0---------|
B1|-[0]-----2----0---------|
G1|--6--OR--2----1---------|
D1|--7------2----2---------|
A1|--7------0----2---------|
E1|--0-----------0---------|



         I  stand  accused of the things i said...


guitar
     G#m                 A                    B                  B 
E1|--0----------------|--0-----------------|--0---------------|--0--------------|
B1|--0----------------|--0-----------------|--0---------------|--0--------------|
G1|--4----------------|--5-----------------|--8---------------|--8--------------|
D1|--6----------------|--7-----------------|--9---------------|--9--------------|
A1|--6----------------|--7-----------------|--9---------------|--9--------------|
E1|-------------------|--------------------|------------------|-----------------| 


banjo overlay - for guitar
     G#m                 A                   B                  B 
E1|---7~--------------|--9~----------------|----------9~------|--11~------------|
B1|---9~--------------|--10~---------------|--12~----12~------|--12~------------|
G1|---8~--------------|--9~----------------|--11~----11~------|--11~------------|
D1|-------------------|--------------------|--9~--------------|-----------------|
A1|-------------------|--------------------|------------------|-----------------|
E1|-------------------|--------------------|------------------|-----------------| 




CHORUS 2 (alternate optional barr chords shown in brackets)


    Sits so high on the city walls


     E       B       A                                        E   B   A
E1|--0---0---0---0---0---0---0---0---0---0---0---0---|       [0] [7] [5]
B1|--0---0---0---0---0---0---0---0---0---0---0---0---|       [0] [7] [5]
G1|--1---1---8---8---6---6---6---6---6---6---6---6---|       [1] [8] [6]
D1|--2---2---9---9---7---7---7---7---7---7---7---7---|       [2] [9] [7]
A1|--2-------9-------7-------7-------7-------7-------|       [2] [9] [7]
E1|--0------[7]-----[5]-----[5]-----[5]-----[5]------| x 3   [0] [7] [5]


banjo overlay - for guitar
E1|-------7~------7~-------9~------9~------9~--------|
B1|------7~------7~-----10~---10~------10~----12~-10~|
G1|--9~------8~-------9~-----9~--9~--9~--9~--9~--9---|
D1|--------------------------------------------------|
A1|--------------------------------------------------|
E1|--------------------------------------------------| 



     cleaner,   sweeter,     brighter..


     B           C#m          D               A                         
E1|--0-----------4---------|----------------|-5-------------|
B1|--0-----------5---------|--7-------------|-5-------------|
G1|--8-----------6---------|--7-------------|-6-------------|
D1|--9-----------6---------|--7-------------|-7-------------|
A1|--9-----------4---------|--5-------------|-7-------------|
E1|-[7]--------------------|----------------|-5-------------|


REPEAT CHORUS 2 ABOVE



Outro - same as intro x 4


E1|-----0-0-----0-0-----0-0---------|---------------------------------|
B1|-----0-0-----0-0-----0-0---0-----|---------------------------------|
G1|-----3-3-----3-3-----3-3-3-------|---------------------------------|
D1|-2---2-2-2---2-2-2---2-2-2---2-2-|-----2-4-2-----------------------|
A1|-2---2-2-2---2-2-2---2-2-2---2-2-|-2-4-------4---------------------|
E1|-0---0-0-0---0-0-0---0-0-0---0-0-|-------------3^--0---------------|
   


banjo - played on guitar 


E1|---------------------------------|---------------------------------|
B1|---------------------------------|-----5-7-5---8---5---------------|
G1|-----3~------3~------3~--3/4-----|-4-6-------6---------------------|
D1|---------------------------------|---------------------------------|
A1|---------------------------------|---------------------------------|
E1|---------------------------------|---------------------------------|





Comments


Popular Bernard Fanning tabs & chords
Believe Chords
Wish You Well Chords
Wish You Well 1 Chords
Wish You Well 3 Chords
Yesterday's Gone Chords
Believe Tabs
Songbird Tabs
Songbird Intro Tabs
Wish You Well Tabs
Hope And Validation Ukulele


Song lyrics



↑ Back to top | Tablatures and chords are parodies/interpretations of the original songs. You may use it for private study, scholarship, research or language learning purposes only
© 2014 AZChords.com Contact us | Privacy policy | DMCA | Add/correct tabs | Request tabs | Top 50 tabs