» » »

Wash Me Clean Tabs (ver.1)

Artists:  A B C D E F G H I J K L M N O P Q R S T U V W X Y Z # 

Wash Me Clean Tabs (ver.1)

Bernard Fanning
Rating:
4/5 (4 votes)

Hard to play? Try these video lessons and learn fast.
                                                 WASH  ME CLEAN
                         As recorded by Bernard Fanning
                     (From the 2006 Album TEA FOR SYMPATHY)



      D                   Em9               Dadd11/F#               F#
 x x 0 2 3 2          x x 2 0 3 2          x x 4 0 3 2          x x 4 3 2 2

     Bm                Asus4/C#                 G               Dmaj7sus4/G
 x 2 4 4 3 x          x 4 2 2 3 x          3 x 0 0 0 x          3 x 0 0 2 x

     G5                  Em7/G                 A11                  G/B
 3 x 0 0 3 x          3 x x 0 3 0          x 0 0 0 2 x          x 2 0 0 3 x

    Em/Ab                  A
 4 x x 0 0 0          x 0 2 2 2 x


 * Put Capo at the 3rd fret!

 Intro
 Tempo = 73bpm
  D       Em9     Dadd11/FD         F#              Bm      Asus4/C#
 4/4
  
  S S S S S S S S S S S S S S S S   S S S S S S S S S S S S S S S S
|-------2-------2-------2-----2---|-------2-------0-----------------|
|-----3-------3-------3-----3---0-|-----2---2-------------3-------3-|
|---2-------0-------0-----2-------|---3-------3---------4-------2---|
|-0-------2-------4---------------|-4-----------4-----4-------2-----|
|---------------------------------|-----------------2-------4-------|
|---------------------------------|---------------------------------|


  D       Em9     Dadd11/FD         F#              Bm      Asus4/C#
  S S S S S S S S S S S S S S S S   S S S S S S S S S S S S S S S S
|-------2-------2-------2-----2---|-------2-------------------------||
|-----3-------3-------3-----3---0-|-----2---2-----0-------3-------3-||
|---2-------0-------0-----2-------|---3-------3---------4-------2---||
|-0-------2-------4---------------|-4-----------4-----4-------2-----||
|---------------------------------|-----------------2-------4-------||
|---------------------------------|---------------------------------||


   Verse
    D       Em9     Dadd11/FD         F#              Bm      Asus4/C#
    S S S S S S S S S S S S S S S S   S S S S S S S S S S S S S S S S  4x
||--------2-------2-------2-----2---|-------2--------------------------||
||o-----3-------3-------3-----3---0-|-----2---2-----0-------3-------3-o||
||----2-------0-------0-----2-------|---3-------3---------4-------2----||
||--0-------2-------4---------------|-4-----------4-----4-------2------||
||o---------------------------------|-----------------2-------4-------o||
||----------------------------------|----------------------------------||


  D               F#
  S S S S S S S S S S S S S S E
|-------2-3-2-----------2-------||
|-----3-------3-------2---2-----||
|---2-----------2---3-------3---||
|-0---------------4-----------4-||
|-------------------------------||
|-------------------------------||


 Chorus
  G       Dmaj7susG5G     Em7/G     D
  S S S S S S S S S S S S S S S S   S S S S S S S S S S S S S S S S
|-------------------------0-----0-|-2-------2-------2-------2p0-----|
|-0-------2-------3---------3-----|---3-------3-------3---------3---|
|---0-------0-------0---------0---|-----2-------2-------2---------2-|
|-----0-------0-------0-----------|-0-----0-------0-------0-0-------|
|---------------------------------|---------------------------------|
|-3-----3-3-----3-3-----3-3-------|---------------------------------|


  G       Dmaj7susG5G     Em7/G     D
  S S S S S S S S S S S S S S S S   S S S S S S S S S S S S S S S S
|-------------------------0-----0-|-2-------2-------2-------2p0-----|
|-0-------2-------3---------3-----|---3-------3-------3---------3---|
|---0-------0-------0---------0---|-----2-------2-------2---------2-|
|-----0-------0-------0-----------|-0-----0-------0-------0-0-------|
|---------------------------------|---------------------------------|
|-3-----3-3-----3-3-----3-3-------|---------------------------------|


  G       A11     G/B     Em/Ab     A               F#
  S S S S S S S S S S S S S S S S   S S S S S S S S S S S S S S E
|---------------------------0-----|-----------------------2--------|
|-0-------2-------3-----------0---|-2-------2-----0-----2---2------|
|---0-------0-------0-----------0-|---2-------2-------3-------3----|
|-----0-------0-------0-----------|-----2-------2---4-----------4--|
|---------0-----0-2-----0---------|-0-----0------------------------|
|-3-----3-----------------4-------|--------------------------------|


  G       A       Bm      Asus4/C#
  S S S S S S S S S S S S S S S S
|---------------------------------|
|-0-------2-----0-------3-------3-|
|---0-------2---------4-------2---|
|-----0-------2-----4-------2-----|
|---------0-------2-------4-------|
|-3-----3-------------------------|


                     To Coda
  D               G   A
  S S S S S S S S E E S S S S
|-------2-3-2-----------------|
|-----3-------3---0---2-----0-|
|---2-----------2-------2-----|
|-0-----------------0-----2---|
|---------------------0-------|
|-----------------3-----------|


  D       Em9     Dadd11/FD         F#              Bm      Asus4/C#
  S S S S S S S S S S S S S S S S   S S S S S S S S S S S S S S S S
|-------2-------2-------2-----2---|-------2-------------------------|
|-----3-------3-------3-----3---0-|-----2---2-----0-------3-------3-|
|---2-------0-------0-----2-------|---3-------3---------4-------2---|
|-0-------2-------4---------------|-4-----------4-----4-------2-----|
|---------------------------------|-----------------2-------4-------|
|---------------------------------|---------------------------------|


                                                      D.S. al Coda
  D       Em9     Dadd11/FD         F#              Bm      Asus4/C#
  S S S S S S S S S S S S S S S S   S S S S S S S S S S S S S S S S
|-------2-------2-------2-----2---|-------2-------------------------||
|-----3-------3-------3-----3---0-|-----2---2-----0-------3-------3-||
|---2-------0-------0-----2-------|---3-------3---------4-------2---||
|-0-------2-------4---------------|-4-----------4-----4-------2-----||
|---------------------------------|-----------------2-------4-------||
|---------------------------------|---------------------------------||


  
  D       Em9     Dadd11/FD         F#              G     A
  S S S S S S S S S S S S S S S S   S S S S S S S S S S E S S S S
|-------2-------2-------2-----2---|-------2------------------------|
|-----3-------3-------3-----3---0-|-----2---2-------0-----2-----0--|
|---2-------0-------0-----2-------|---3-------3-------0-----2------|
|-0-------2-------4---------------|-4-----------4-------0-----2----|
|---------------------------------|-----------------------0--------|
|---------------------------------|-----------------3--------------|


  D       Em9     Dadd11/FD         F#              G       A         D
  S S S S S S S S S S S S S S S S   S S S S S S S S S S S S S S S S    W
|-------2-------2-------2-----2---|-------2-------------------------|-------*|
|-----3-------3-------3-----3---0-|-----2---2-------0-------2-----0-|-^3----*|
|---2-------0-------0-----2-------|---3-------3-------0-------2-----|-^2----*|
|-0-------2-------4---------------|-4-----------4-0-----0-------2---|-^0----*|
|---------------------------------|-------------------------0-------|-------*|
|---------------------------------|-----------------3-----3---------|-------*|
            
Hard to play? Try these video lessons and learn fast. | Correct




comments powered by Disqus
↑ Back to top | Tablatures and chords are parodies/interpretations of the original songs. You may use it for private study, scholarship, research or language learning purposes only