>
 >
How Can I Tell You

How Can I Tell You Guitar Tabs

Ben Taylor - How Can I Tell You chords, tabs, tablatures, lyrics

Guitar lessons | Add/correct | Request | Top 50 tabs Artists:  A B C D E F G H I J K L M N O P Q R S T U V W X Y Z 0-9

How Can I Tell You Guitar Tabs – Ben Taylor

CD, Sheet music, Poster

Do you like How Can I Tell You? Share with your friends now
Tabs
-------------------------------------------------------------------------------
-------------------------------------------------------------------------------

Tuning: ¼ Step Down… But I’d just play it standard
     G                  A                     D (sus4)           G		Bm+ flat 6?
e|--------3---------------------------2h3--2-------0---------3------------------------|
B|----------3-----2--2--3--5-------3--------3-----------------3---------------3-------|
G|------------0---2------------------------------2----------------------------0----0--|
D|--------------------2--4--5---0-------------------------0----------------4----------|
A|----2-----------0-------------------------------------------------------------------|
E|--3-----------------------------------------------------3----------2--0-------------|
      A		        D (sus4)            G (G/F)	   Bm + flat 6    D (sus4)
e|--------------------------2h3-2--------3-------------------------------------------------2h3--2|
B|--2--2--3---5----------3-------3--------------------------------------3---2-----------3--------|
G|--2---------------------------------2--------------------------------0------2--------2---------|
D|------2--4---5----0-----------------------------0---------------4----------2----0--------------|
A|--0---------------------------------------------2----------------------------------------------|
E|----------------------------------------------3-------3--2--0----------------------------------|
G           A
  How can I tell you
       D    G      (G/F)-Em
that I love you
Em      A
I love you
         D			    G       G-(G/F)-Em
but I can't think of right words to say
Em	  A
I long to tell you
         D		      G-(G/F)-Em
that I'm always thinking of you
Em	           A
always thinking of you
       D	          G    D(sus4) G-(G/F)-Em
but my words just blow away
Em		     A
it always ends up to one
		 D			                G
faint honey, and I can't think of the right words to say
G    A   D     D(sus4)   G-(G/F)-Em
oh, oh, ooooooh
Em	    A
wherever I am,
	     D		         G      G-(G/F)-Em
I'm always, always walking with you
Em	            A
always walking with you
        D                    G       G-(G/F)-Em
and I'm sad that you're not there
Em	    A
whoever I'm with girl
D	           G      G-(G/F)-Em
always talking to you
Em	       A
always talking to you
         D	            G       G-(G/F)-Em
but I look and you're not there
Em		A
it always ends up to one thing honey
        D		      G
and I'm sad that you're not there
G    A   D      D(sus4)  G-(G/F)-Em
oh, oh, ooooooh
Em          A
I long to know you
        D		     G
long to feel my arms around you
Em	      A
feel my arms around you
         D                  G     G-(G/F)-Em
like the sea around the shore
Em	                 A
Each night and day I pray
        D	      G             G-(G/F)-Em
and hope that I might find you
Em		   A
hope that I might find you
	D	            G D(sus4) G-(G/F)-Em
because hearts can do no more
Em		     A
it always ends up to one thing honey
      D		      G
and I kneel upon the floor
G    A   D       D(sus4) G-(G/F)-Em
oh, oh, ooooooh
G	  A
How can I tell you
          D    G     G-(G/F)-Em
that I love you
Em     A
I love you
      D			            G   G-(G/F)-Em
but I can't think of right words to say
Em        A
I long to tell you
         D		      G     G-(G/F)-Em
that I'm always thinking of you
Em              A
always thinking of you
       D                   G  G-(G/F)-Em
but my words just blow away
Em		     A
it always ends up to one thing honey,
      D                                  G
and I can't think of the right words to say
G   A    D   D(sus4)
oh, oh, ooooooh

| /  slide up
| \  slide down
| h  hammer-on
| p  pull-off
| ~  vibrato
| +  harmonic
| x  Mute note
============================================================================





Comments


Popular Ben Taylor tabs & chords
After Its Over Chords
Always Chords
Digest Chords
Must Have Fallen Chords
Nothing I Can Do Intro Tabs
Surround Me Tabs
Wicked Way Tabs
Wicked Way Intro Tabs
You Belong To Me Intro Tabs
Digest Ukulele


Song lyrics



↑ Back to top | Tablatures and chords are parodies/interpretations of the original songs. You may use it for private study, scholarship, research or language learning purposes only
© 2014 AZChords.com Contact us | Privacy policy | DMCA | Add/correct tabs | Request tabs | Top 50 tabs