» » »

Ben Taylor, Wicked Way Tabs (ver.1)

Artists:  A B C D E F G H I J K L M N O P Q R S T U V W X Y Z # 

Wicked Way Tabs (ver.1)

Ben Taylor Tabs
 Rating:
4/5 (4 votes)
Wicked Way lessons Tabs too difficult? Try these video lessons and learn fast
1
                ---------------------------------
Ben Taylor - Wicked Way
---------------------------------

Tuning: Capo on 3rd fret 

Intro
e|------------------------------------------------------------------|
B|-----3-------3-------3-------3-------0-------0-------0-------0----|
G|---0---0---0---0---0---0---0---0---0---0---0---0---0---0---0---0--|
D|-5-------5-------4-------4-------2-------2-------4-------4--------|
A|------------------------------------------------------------------|
E|------------------------------------------------------------------|


Verse
e|------------------------------------------------------------------|
B|-----3-------3-------3-------3-------0-------0-------0-------0----|
G|---0---0---0---0---0---0---0---0---0---0---0---0---0---0---0---0--|
D|-5-------5-------4-------4-------2-------2-------4-------4--------|
A|------------------------------------------------------------------|
E|------------------------------------------------------------------|

e|------------------------------------------------------------------|
B|-----1-------1-------1-------1-------1-------1-------3-------3----|
G|---0---0---0---0---0---0---0---0---0---0---0---0---2---2---2---0--|
D|-------------------------------------------------0-------0--------|
A|-3-------3-------2-------2-------0-------0------------------------|
E|------------------------------------------------------------------|

e|--------------------------------|
B|-----1-------1-------1----------|
G|---0---0---0---0---0---0---0----|
D|--------------------------------|
A|-----------------------------2--|
E|-3-------3-------3-------3------|


Chorus
e|------------------------------------------------------------------|
B|-----1-------1-------1-------1-------1-------1-------1-------1----|
G|---0---0---0---0---0---0---0---0---0---0---0---0---0---0---0---0--|
D|------------------------------------------------------------------|
A|-3-------3-------2-------2-------0-------0-------2-------2--------|
E|------------------------------------------------------------------|

e|----------------------------------------------|
B|-----1-------1-------1-------1-----1-------3--|
G|---0---0---0---0---0---0---0---0---0-------2--|
D|-------------------------------------------0--|
A|-3-------3-------2-------2---------0----------|
E|----------------------------------------------|

e|----------------------------------|
B|-----3-------3-------3-------3----|
G|---0---0---0---0---0---0---0---0--|
D|-5-------5-------5-------5--------|
A|----------------------------------|
E|----------------------------------|
            
Submit corrections

comments powered by Disqus
↑ Back to top | Ben Taylor Tabs for Wicked Way. Lyrics for acoustic guitar and electric guitar. 1 Tablatures and chords are parodies/interpretations of the original songs. You may use it for private study, scholarship, research or language learning purposes only