» » »

Ben Harper, With My Own Two Hands Tabs (ver.2)

Artists:  A B C D E F G H I J K L M N O P Q R S T U V W X Y Z # 

With My Own Two Hands Tabs (ver.2)

Ben Harper Tabs
 Rating:
4/5 (4 votes)
With My Own Two Hands lessons Tabs too difficult? Try these video lessons and learn fast
                

CHORUS1/INTRO(2):

   C     G         D/F#  C    G       C  G
e|------------------------------------------|
B|-1-----0---1p0---------1-0----0-----1--0--|
G|---0-----0-----0---2--------0---0---------|
D|-----2----------0----0-------------(0)----| You dont have to play that note (0) 
A|-3---------------------3------------3-----| but its also working :D
E|-------3-----------2--------3----------3--|


OR  

   C     G         D/F#  C    G       C  G
e|-------------------------------------------|
B|-1-----0-0----0--------1-0----0-----1--0---|
G|---0-------0-------2--------0---0----------|
D|-----2-------0-------------------(0)-------| You dont have to play that note (0) 
A|-3---------------------3------------3------| but its also working :D
E|-------3-----------2--------3----------3---|
I Usually play this one ^



VERSE(1):

The verse is something like this.
I dont have the energy to take it out exactly 
but... i play it like this and i think its sounds good.
At least it's the right chords ;)

   C     G     G     G      
e|--------------------------|
B|-1-----0-----3-----0------|
G|---0-----0-----0-----0----|
D|-----2-----0-----0-----0--| 
A|-3------------------------|
E|-------3------------------|

CHORUS2(3):

The other chorus is like this:

   G       Em        D/F#  C     G      C  G
e|-----------0--------------------------------|
B|---0--0----0---0----3----1-0-----0----1--0--|
G|--(0)(0)-------0----2--------0---0----------|
D|-----------------2----0------------0--------| 
A|-------------2-----------3------------3-----|
E|-3--2----0----------2----------3---------3--|

And that's it. There's also lyrics and I've marked the places and verse/chorus/
chorus2 with numbers 
so that you will know where you should play this and that... haha xP.


1.
I can change the world
With my own two hands
Make a better place
With my own two hands
Make a kinder place
With my own two hands

2.
With my own
With my own two hands

1.
I can make peace on earth
With my own two hands
I can clean up the earth
With my own two hands
I can reach out to you
With my own two hands

2.
With my own
With my own two hands

3.
With my own
With my own two hands

1.
Im gonna make it a brighter place
With my own two hands
Im gonna make it a safer place
With my own two hands
Im gonna help the human race
With my own two hands

2.
With my own
With my own two hands

3.
With my own
With my own two hands

1.
I can hold you
In my own two hands
I can comfort you
With my own two hands
But you got to use
Use your own two hands

2.
Use your own
Use your own two hands

3.
Use your own
Use your own two hands

3.
With our own
With our own two hands
With our own
With our own two hands

3.
with my own 
with my own two hands

End on G


(BTW sorry for my bad english :S)
            
Submit corrections

comments powered by Disqus
↑ Back to top | Ben Harper Tabs for With My Own Two Hands. Lyrics for acoustic guitar and electric guitar. Tablatures and chords are parodies/interpretations of the original songs. You may use it for private study, scholarship, research or language learning purposes only