>
 >
You Never Give Me Your Money

You Never Give Me Your Money Guitar Tabs

Beatles - You Never Give Me Your Money chords, tabs, tablatures, lyrics

Guitar lessons | Add/correct | Request | Top 50 tabs Artists:  A B C D E F G H I J K L M N O P Q R S T U V W X Y Z 0-9

You Never Give Me Your Money Guitar Tabs – Beatles

CD, Sheet music, Poster

Do you like You Never Give Me Your Money? Share with your friends now
ChordsTabsTabs v2
The Beatles


Intro:
|---0-0-0-0-0-0---0------------------------------1---0----------|

|---1-1-1-1-1-1-1-1----3----3-----3-3-3-3-3-3----1-----1--------|

|---0-0-0-0-0-0---2----2--2---2---0-0-0-0-0-0----0--------0-----|

|---2-2-2-2-2-2---0----0----------3-3-3-3-3-3----2--------------|

|-0-----------------------------2----------------3-----------3--|

|-------------------------------3-------------------------------|


|----0-0-0-0-0-0-0----------0-----------------------------------------|

|----1-1-1-1-1-1-1-3--1--3--0--------------1----------------1---------|

|-2--2-2-2-2-2-2-2-2--------1----1---2-----2----2---2---2---2---2---2-|

|-3----------------0--------2--2-----2--2--2--2---2---2---2---2---2---|

|-3-------------------------2--------0--------------------------------|

|---------------------------0-----------------------------------------|


Verse 1:
E--------0---------------------2--------1------------------------

B--------1---------------------2--------3------------------------

G--------0---------------------2--------2------------------------

D--------2---------------------0--------0------------------------

A--------0---------------------0--------0------------------------

E------------------------------0---------------------------------
	You never give me your    mo    ney

E------3----------------------0----------------------------------

B------0----------------------1----------------------------------

G------0----------------------0----------------------------------

D------0----------------------2----------------------------------

A------2----------------------3----------------------------------

E------3----------------------0----------------------------------
	You only give me your funny paper
 
E-------0-----------------------1--------------------------------

B-------1-----------------------3--------------------------------

G-------2-----------------------2--------------------------------

D-------3-----------------------0--------------------------------

A-------------------------------0--------------------------------

E----------------------------------------------------------------
	And in the middle of negotiations

E-----------0----------------------------------------------------

B-----------1----------------------------------------------------

G-----------2----------------------------------------------------

D-----------2----------------------------------------------------

A-----------0----------------------------------------------------

E----------------------------------------------------------------
	You break down

Verse 2 (same music as verse 1)
I never give you my number
I only give you my situation
And in the middle of investigation
I break down

Verse 3
E-------0----------------0---------------------------------------

B-------1----------------3---------------------------------------

G-------0----------------1---------------------------------------

D-------2----------------0---------------------------------------

A-------3----------------2---------------------------------------

E-------0----------------0---------------------------------------
	Out of college, money spent
 
E-------0--------------------------------------------------------

B-------1--------------------------------------------------------

G-------2--------------3-----------------------------------------

D-------2--------------2-----------------------------------------

A-------0--------------3-----------------------------------------

E----------------------3-----------------------------------------
	See no future, pay no rent

E-------1----------------1---------------------------------------

B-------1----------------0---------------------------------------

G-------2----------------0---------------------------------------

D-------3----------------0---------------------------------------

A------------------------2---------------------------------------

E------------------------3---------------------------------------
	All the money's gone

E------------------0---------------------------------------------

B------------------1---------------------------------------------

G------------------0-----3---------------------------------------

D------------------2-----2---------------------------------------

A------------------3-----3---------------------------------------

E------------------0-----3---------------------------------------
	Nowhere to go

Verse 4 (Same music as Verse 3)

Any jobber, got the sack
Monday morning, turning back
Yellow lorry slow
Nowhere to go
 
E-----------1---------------------1------------------------------

B-----------3---------------------1------------------------------

G-----------3---------------------2------------------------------

D-----------3---------------------3------------------------------

A-----------1----------------------------------------------------

E-----------1----------------------------------------------------
	But oh, that magic feeling

E------------------0---------------------------------------------

B------------------1---------------------------------------------

G------------------0---------------------------------------------

D------------------2---------------------------------------------

A------------------3---------------------------------------------

E------------------0---------------------------------------------
	Nowhere to go

E-------1--------------------1-----------------------------------

B-------3--------------------1-----------------------------------

G-------3--------------------2-----------------------------------

D-------3--------------------3-----------------------------------

A-------1--------------------------------------------------------

E-------1--------------------------------------------------------
	Oh, that magic feeling

E------------------0---------------------------------------------

B------------------1---------------------------------------------

G------------------0---------------------------------------------

D------------------2---------------------------------------------

A------------------3---------------------------------------------

E------------------0---------------------------------------------
	Nowhere to go, nowhere to go
 
E-------1----1---3(r3)------------------------------------------

B-------3----1---0(r3)------------------------------------------

G-------3----2---0(r3)------------------------------------------

D-------3----3---2(r3)------------------------------------------

A-------1--------3(r3)------------------------------------------

E-------1--------0(r3)------------------------------------------
	Ah_________(r3)


D  Eb  G  C  A  Eb  C  F#  Eb  A  F#  G  G#  A


E-------------------7--------------------------------------------

B-------------------4--------------------------------------------

G-------------------4--------------------------------------------

D-------------------4--------------------------------------------

A----------------------------------------------------------------

E----------------------------------------------------------------
	One sweet dream

E-------0------------2--------0-------------0--------------------

B-------1------------3--------3-------------2--------------------

G-------0------------2--------1-------------2--------------------

D-------2------------0--------0-------------2--------------------

A-------3---------------------2-------------0--------------------

E-------0---------------------0----------------------------------
	Pick up the bags and get in the limousine

E--------2------------------3------------------------------------

B--------1------------------0------------------------------------

G--------2------------------0------------------------------------

D--------0------------------0------------------------------------

A---------------------------2------------------------------------

E---------------------------3------------------------------------
	Soon we'll be away from here

E--------2---------------3------------------0--------------------

B--------1---------------0------------------2--------------------

G--------2---------------0------------------2--------------------

D--------0---------------0------------------2--------------------

A------------------------2------------------0--------------------

E------------------------3---------------------------------------
	Step on the gas and wipe that tear away
 
E------------------5----------0--------------------------5-------

B------------------4----------1----------------0-----------------

G------------------4----------0-------0------0---0-----2---------

D------------------4----------2-----2------0---------2-----------

A-----------------------------3---3------2---------0-------------

E-----------------------------0----------------------------------
	One sweet dream came true   		today

E-------------0--------------------------5-----------------------

B-------------1----------------0---------------------------------

G-------------0-------0------0---0-----2-------------------------

D-------------2-----2------0---------2---------------------------

A-------------3---3------2---------0-----------------------------

E-------------0--------------------------------------------------
	Came true   		today

E-------------0--------------------------5-----------------------

B-------------1----------------0---------------------------------

G-------------0-------0------0---0-----2-------------------------

D-------------2-----2------0---------2---------------------------

A-------------3---3------2---------0-----------------------------

E-------------0--------------------------------------------------
	Came true   		today yes it did!

E---0----3-7--0--3-------------3------------7--------------------

B---1----0-4--2--0-------------0------------4--------------------

G---0----0-4--2--0-------------0------------4--------------------

D---2----0-4--2--2-------------0------------4--------------------

A---3----2----0--3-------------2---------------------------------

E---0----3-------0-------------3---------------------------------
		One two three four five six seven

E----------------0-----------------------------------------------

B----------------2-----------------------------------------------

G----------------2-----------------------------------------------

D----------------2-----------------------------------------------

A----------------0-----------------------------------------------

E----------------------------------------------------------------
		All good children go to heaven

E----------------3-------------3------------7--------------------

B----------------0-------------0------------4--------------------

G----------------0-------------0------------4--------------------

D----------------2-------------0------------4--------------------

A----------------3-------------2---------------------------------

E----------------0-------------3---------------------------------
		One two three four five six seven

E----------------0-----------------------------------------------

B----------------2-----------------------------------------------

G----------------2-----------------------------------------------

D----------------2-----------------------------------------------

A----------------0-----------------------------------------------

E----------------------------------------------------------------
		All good children go to heaven

Fade out





Comments


Popular Beatles tabs & chords
Baby Its You 2 Bass Tabs
A Day In The Life 1 Tabs
All You Need Is Love (Solo) Tabs
Because 2 Tabs
Eleanor Rigby 1 Tabs
For You Blue 1 Tabs
I'm Down Tabs
I've Got A Feeling 1 Tabs
If Your´Ve Got Trouble Tabs
Let It Be Tabs


Song lyrics



↑ Back to top | Tablatures and chords are parodies/interpretations of the original songs. You may use it for private study, scholarship, research or language learning purposes only
© 2014 AZChords.com Contact us | Privacy policy | DMCA | Add/correct tabs | Request tabs | Top 50 tabs