» » »

Beatles, The Long And Winding Road Bass tabs (ver.1)

Artists:  A B C D E F G H I J K L M N O P Q R S T U V W X Y Z # 

The Long And Winding Road Bass tabs (ver.1)

Beatles Tabs
 Rating:
4/5 (4 votes)
The Long And Winding Road lessons Tabs too difficult? Try these video lessons and learn fast
                Standard Tuning 
Time Signature: 4/4
  
G|-----------------|----------------|---------------|----------------|
D|-----------------|----------------|---------------|----1-----------|
A|--R---R---R---R--|--R---R---R---R-|----1-1----1-1-|----------4-----|
E|-----------------|----------------|---------------|----------------|
	
G|-----------------|----------------|---------------|----------------|
D|-----------------|----------------|---------------|----------------|
A|-----------------|----------------|--3----R---R---|---------1------|
E|--4--------------|---4-------3----|---------------|--1-------------|

G|-----0---3---6---|---1-------0----|---------------|----------------|
D|--1--------------|----------------|---------------|----------------|
A|-----------------|----------------|--3------------|---------1------|
E|-----------------|----------------|---------------|--1-------------|
      
G|-----------------|---------------|----------------|-----------------|
D|--1--------------|---------------|----------------|--1--------------|
A|-----------------|--3------------|---1-1----1-1---|---------4-------|
E|-----------------|---------------|----------------|-----------------|

G|-----------------|----------------|---------------|----------------|
D|-----------------|----------------|---------------|----------------|
A|-----------------|----------------|--3------------|---------1------|
E|--4--------------|---4-------3----|---------------|--1-------------|

G|------0---3---6--|---1-------0----|---------------|----------------|
D|--1--------------|----------------|---------------|----------------|
A|-----------------|----------------|--3------------|---------1------|
E|-----------------|----------------|---------------|--1-------------|

G|-----------------|--3------1------|--0------------|--3-------1-----|
D|--1--------------|----------------|--------3------|----------------|
A|-----------------|----------------|------------1--|----------------|
E|-----------------|----------------|---------------|----------------|

G|--0----------3---|----------------|---------------|----------------|
D|---------3-------|----------------|---------------|----1-----------|
A|-----------------|--3-------------|----1-1----1-1-|------------4---|
E|-----------------|----------------|---------------|----------------|
	
G|-----------------|----------------|---------------|----------------|
D|-----------------|----------------|---------------|----------------|
A|-----------------|----------------|--3------------|---------1------|
E|--4--------------|---4-------3----|---------------|--1-------------|

G|------0---3---6--|---1-------0----|---------------|----------------|
D|--1--------------|----------------|---------------|----------------|
A|-----------------|----------------|--3------------|---------1------|
E|-----------------|----------------|---------------|--1-------------|
      
G|-----------------|--3--3---1----1-|--0----0-----3-|--3--3--1-----1-|
D|--1--------------|----------------|---------3-----|----------------|
A|-----------------|----------------|---------------|----------------|
E|-----------------|----------------|---------------|----------------|

G|--0---0------3---|----------------|---------------|---------------|
D|--------3--------|----------------|---------------|--1------------|
A|-----------------|--3-------------|--1-1----1-1---|---------4-----|
E|-----------------|----------------|---------------|---------------|

G|-----------------|----------------|---------------|----------------|
D|-----------------|----------------|---------------|----------------|
A|-----------------|----------------|--3------------|---------1------|
E|--4--------------|---4-------3----|---------------|--1-------------|

G|------0---3---6--|---1-------0----|---------------|----------------|
D|--1--------------|----------------|---------------|----------------|
A|-----------------|----------------|--3------------|---------1------|
E|-----------------|----------------|---------------|--1-------------|

G|-----------------|----------------|---------------|
D|--1--------------|----------------|--1------------|
A|-----------------|--1-1----1-1----|---------------|
E|-----------------|----------------|---------------|

(((Bass is Bass)))
            
Submit corrections

comments powered by Disqus
↑ Back to top | Beatles Bass for The Long And Winding Road. Lyrics for acoustic guitar and electric guitar. Tablatures and chords are parodies/interpretations of the original songs. You may use it for private study, scholarship, research or language learning purposes only