» » »

Beatles, Octopus Garden Bass tabs (ver.2)

Artists:  A B C D E F G H I J K L M N O P Q R S T U V W X Y Z # 

Octopus Garden Bass tabs (ver.2)

Beatles Tabs
 Rating:
4/5 (4 votes)
Octopus Garden lessons Tabs too difficult? Try these video lessons and learn fast
1
                By The Beatles

Intro/Guitar

|---------|-------------------|
|---------|-------------------|
|-----7---|-7---7-6-4---4-----|
|---7-----|---7-------4---4---|

1st Verse:

|-------------------------------------|
|-------------------------------------|
|--7---7-6-4---2-0---0---2---2-2-2-2--|
|----7-------4-----0---0---2----------|

|--------------------------------------|
|--------------------------------------|
|--7---7-6-4---2-0---0---2---2-2-2-----|
|----7-------4-----0---0---2-----------|

Pre-Chorus:

|--------------------------------------|
|--------------------------------------|
|---4------4-4-2-2-0------0---2-2-2----|
|--------------------------------------|

|-------------|
|-------------|
|--0-2-4-6----|
|-------------| (This little part is used several times to connect other larger parts.)

Chorus:

|--------------------------------------|
|---------------------------2---2------|
|---7---7-6-4---4-2-0---2-----2---2----|
|-----7-------4-------0---0------------|

2nd Verse same as 1st, but with some variations.
Pre-Chorus
Chorus


Guitar solo:

|---------------------------|
|----77--77------44---44----|
|--7---7---7-6-4----4----4--|
|---------------------------|


|--------------------------------------|
|------00---00-----22---22---22--------|
|--2-0----0----0-2----2----2-----2-----|
|--------------------------------------|

3rd Verse (same as the others)
Pre-Chorus
Chorus ( with some variations)
Outro

|--------------|
|--------------|
|-------7------|
|----7---------|
            
Submit corrections

comments powered by Disqus
↑ Back to top | Beatles Bass for Octopus Garden. Lyrics for acoustic guitar and electric guitar. 1 Tablatures and chords are parodies/interpretations of the original songs. You may use it for private study, scholarship, research or language learning purposes only