» » »

Ob La Di Ob La Da Bass tabs (ver.1)

Artists:  A B C D E F G H I J K L M N O P Q R S T U V W X Y Z # 

Ob La Di Ob La Da Bass tabs (ver.1)

Beatles
Rating:
0/5 (0 votes)

Hard to play? Try these video lessons and learn fast.
                INTRO
G-----7-10-----7-10-I-----7-10-----7-10-I-----------------
D--8--------8-------I--8--------8-------I-----0-3-----0-3-
A-------------------I-------------------I--1-------1------
E-------------------I-------------------I-----------------



-----------------I 
-----0-3-----0-3-I 
--1-------1------I 
-----------------I

VERSE
Desmond....
-----------------I-----------------I-----------------
-----0-3-----0-3-I-----------------I-----------------
--1-------1------I-----0-3-----0-3-I-----0-3-----0-3-
-----------------I--1-------1------I--1-------1------



-----------------I-----------------I-----0-3-----0-3-
-----0-3-----0-3-I-----0-3-----0-3-I--1-------1------
--1-------1------I--1-------1------I-----------------
-----------------I-----------------I-----------------



-----------------I-----------------
-----0-3---------I-----0-3-----0-3- 
--1----------0-3-I--1-------1------
----------1------I-----------------

CHORUS

-----------------I-----------------I-------3---------
-----0-3-----0-3-I-----0-3-----0-3-I--1--5---5-3-----
--1-------1------I--1-------1------I-------------5-3-
-----------------I-----------------I-----------------


-----------------
-----0-3---------
--1----------0-3-
----------1------


            In a couple of years..
----------I--------------------I--------------------
----------I--------------------I--------------------
--1-2-4-5-I--6--X-6-0-6--X-6-0-I--6--X-6-0-6--X-6-0-
----------I--------------------I--------------------


--------------------I------------------- 
--------------------I------------------- 
--------------------I---------------4-5-
--6--X-6-0-6--X-6-0-I--6--X-6-0-6-7-----



OUTRO               Obladi Oblada!
--2---2---2---2---I--3--0---------
----0---0---0---0-I-------3--0----  
------------------I-------------1-
------------------I---------------
            
Hard to play? Try these video lessons and learn fast. | Correct




comments powered by Disqus
↑ Back to top | Tablatures and chords are parodies/interpretations of the original songs. You may use it for private study, scholarship, research or language learning purposes only