» » »

Beatles, Michelle Tabs (ver.2)

Artists:  A B C D E F G H I J K L M N O P Q R S T U V W X Y Z # 

Michelle Tabs (ver.2)

Beatles Tabs
Rating:
0/5 (0 votes)
Michelle lessons Tabs too difficult? Try these video lessons and learn fast
                
E]--------------------------------------------------------
B]--------------------------------------------------------
G]--2--2--3----------2---------------1-----------------
D]-------------3----2---2--1--0---3----3--2---0--3--2    Repeat Twice
A]--------------------------------------------------------
E]---------------------------------------------------------

E]----------------------------------------------------------------------------------------------------------------------
B]-----3--1----3--1----5--3--------------------------------------3---------------------------------------------------
G]--2--------2-------2--------2--3--2--3----------------2-2-2-----2--0---------0--2-2-2-2-2-2-2--2-2--0-----
D]---------------------------------------------------3--3---------------------3--3----------------------------------32
A]-----------------------------------------------------------------------------------------------------------------------
E]-----------------------------------------------------------------------------------------------------------------------

Repeat Chorus
            
Submit corrections

comments powered by Disqus
↑ Back to top | Beatles Tabs for Michelle. Lyrics for acoustic guitar and electric guitar. Tablatures and chords are parodies/interpretations of the original songs. You may use it for private study, scholarship, research or language learning purposes only