>
 >
Lucy In The Sky With Diamonds 2

Lucy In The Sky With Diamonds 2 Bass Tabs

Beatles - Lucy In The Sky With Diamonds 2 chords, tabs, tablatures, lyrics

Guitar lessons | Add/correct | Request | Top 50 tabs Artists:  A B C D E F G H I J K L M N O P Q R S T U V W X Y Z 0-9

Lucy In The Sky With Diamonds 2 Bass Tabs – Beatles

CD, Sheet music, Poster

Do you like Lucy In The Sky With Diamonds 2? Share with your friends now
Bass Tabs
G|------------------------|------------------------|
D|7-----------5-----------|4-----------3-----------|
A|------------------------|------------------------|
E|------------------------|------------------------|
    


G|------------0-----------|------------------------|
D|2-----------------------|4-----------3-------3---|
A|------------------------|----------------3-------|
E|------------------------|------------------------|
 


G|------------|------------------------|
D|--------0---|2-----------5-----------|
A|3-----------|------------------------|
E|------------|------------------------|
   


G|------------------------|------------0-----------|
D|4-----------3-----------|2-----------------------|
A|------------------------|------------------------|
E|------------------------|------------------------|
   


G|----2-------2-------2---|------------------------|
D|4-------4-------4-------|------------------------|
A|------------------------|5---5---5---3---3---3---|
E|------------------------|------------------------|
  


G|------------------------|------------------------|
D|------------3---3---3---|------------5---5---5---|
A|1---1---1---------------|3---3---3---------------|
E|------------------------|------------------------|



G|------------------------|------------3-----------|
D|------------------------|----0---3-------3-------|
A|------------3---3---3---|1-------------------1---|
E|1---1---1---------------|------------------------|
  


G|------------------------|------------------------|
D|------------------------|--------0---5---4---2---|
A|3---3---3---------------|----2-------------------|
E|------------3---3---3---|3-----------------------|



G|--------------------------------|--------------------------------|
D|0-------------------------------|--------------------0---2---0---|
A|--------------------------------|--------0---2---3---------------|
E|--------------------------------|3---3---------------------------|
  


G|--------------------------------|--------------------------------|
D|----0-0-0---0-0-0---0-0---------|--------------------0---2---0---|
A|------------------------5\------|--------0---2---3---------------|
E|----------------------------1---|3---3---------------------------|
  

G|--------------------------------|--------------------------------|
D|----0-0-0---0-0-0---0-0---------|--------------------0---2---0---|
A|------------------------5\------|--------0---2---3---------------|
E|----------------------------1---|3---3---------------------------|




G|--------------------------------|----2-------2-------2-------2---|
D|----0-0-0---0-0-0---0-0-0---0-0-|0-------0-------0-------0-------|
A|--------------------------------|--------------------------------|
E|--------------------------------|--------------------------------|



G|------------------------|------------------------|
D|------------5-----------|4-----------3-----------|
A|0-----------------------|------------------------|
E|------------------------|------------------------|
  


G|------------0-----------|------------------------|
D|2-----------------------|4-----------3-------3---|
A|------------------------|----------------3-------|
E|------------------------|------------------------|
 


G|------------|------------------------|
D|--------0---|2-----------5-----------|
A|3-----------|------------------------|
E|------------|------------------------|
  


G|------------------------|------------0-----------|
D|4-----------3-----------|2-----------------------|
A|------------------------|------------------------|
E|------------------------|------------------------|
   


G|----2-------2-------2---|------------------------|
D|4-------4-------4-------|------------------------|
A|------------------------|5---5---5---3---3---3---|
E|------------------------|------------------------|
 


G|------------3-----------|------------------------|
D|----0---3-------3-------|------------------------|
A|1-------------------1---|3---3---3---3---0-------|
E|------------------------|--------------------3---|
 


G|------------------------|------------3-----------|
D|------------3-----------|----0---3-------3-------|
A|----0---3-----------3---|1-------------------1---|
E|1-----------------------|------------------------|


G|------------------------|------------------------|
D|------------------------|------------------------|
A|3---3-------3---2---0---|----------------2---3---|
E|--------3---------------|3---3---3---3-----------|
   


G|--------------------------------|--------------------------------|
D|0-------------------------------|--------------------0---2---0---|
A|--------------------------------|--------0---2---3---------------|
E|--------------------------------|3---3---------------------------|



G|--------------------------------|--------------------------------|
D|----0-0-0---0-0-0---0-0---------|--------------------0---2---0---|
A|------------------------5\------|--------0---2---3---------------|
E|----------------------------1---|3---3---------------------------|
  


G|--------------------------------|--------------------------------|
D|----0-0-0---0-0-0---0-0---------|--------------------0---2---0---|
A|------------------------5-------|--------0---2---3---------------|
E|--------------------------1-----|3---3---------------------------|



G|--------------------------------|----2-------2-------2-----------|
D|----0-0-0---0-0-0---0-0-0-------|0-------0-------0-------0-------|
A|----------------------------0---|--------------------------------|
E|--------------------------------|----------------------------3---|
 


G|------------------------|------------------------|
D|------------5-----------|4-----------3-----------|
A|0-----------------------|------------------------|
E|------------------------|------------------------|
  


G|------------0-----------|------------------------|
D|--------2---------------|4-----------3-------3---|
A|0---4-------------------|----------------3-------|
E|------------------------|------------------------|
  


G|------------|------------------------|
D|--------0---|2-------2---5-------5---|
A|3-----3-----|------------------------|
E|------------|------------------------|
 


G|------------------------|------2-----------------|
D|4-------4---3-------3---|2-------2---5-------5---|
A|------------------------|------------------------|
E|------------------------|------------------------|



G|--------2---------2-----|
D|4-----------4-------4---|
A|------------------------|
E|------------------------|


*Back to 4/4
G|--------------------------------|--------------------------------|
D|0-------------------------------|--------------------0---2---0---|
A|--------------------------------|--------0---2---3---------------|
E|--------------------------------|3---3---------------------------|



G|--------------------------------|--------------------------------|
D|----0-0-0---0-0-0---0-0---------|--------------------0---2---0---|
A|------------------------5\------|--------0---2---3---------------|
E|----------------------------1---|3---3---------------------------|



G|--------------------------------|--------------------------------|
D|----0-0-0---0-0-0---0-0---------|--------------------0---2---0---|
A|------------------------5\------|--------0---2---3---------------|
E|----------------------------1---|3---3---------------------------|





G|--------------------------------|--------2-----------------------|
D|----0-0-0---0-0-0---0-0-0-------|0---4-------4---0---4---0---4---|
A|----------------------------0---|--------------------------------|
E|--------------------------------|--------------------------------|




G|--------------------------------||
D|--------2---------------2-------|| 
A|0---4-------4---0---4-------0---||  
E|--------------------------------||





Comments


Popular Beatles tabs & chords
Eight Days A Week 3 Bass Tabs
A Hard Days Night 3 Chords
Across The Univers Chords
Ask Me Why 2 Chords
I'll Be Back Chords
Sie Liebt Dich Chords
Bad Boy Tabs
Dig A Pony 1 Tabs
Free As A Bird 2 Tabs
I'm So Tired Tabs


Song lyrics



↑ Back to top | Tablatures and chords are parodies/interpretations of the original songs. You may use it for private study, scholarship, research or language learning purposes only
© 2014 AZChords.com Contact us | Privacy policy | DMCA | Add/correct tabs | Request tabs | Top 50 tabs