>
 >
Let It Be 2

Let It Be 2 Guitar Tabs

Beatles - Let It Be 2 chords, tabs, tablatures, lyrics

Guitar lessons | Add/correct | Request | Top 50 tabs Artists:  A B C D E F G H I J K L M N O P Q R S T U V W X Y Z 0-9

Let It Be 2 Guitar Tabs – Beatles

CD, Sheet music, Poster

Do you like Let It Be 2? Share with your friends now
ChordsTabsTabs v2Tabs v3Tabs v4Tabs v5
Let It Be by Beatles


Intro/Pre-Solo/Outro: (keyboard)

 F  C/E  G7/D  C  Bb  F/A  G  F  C 
-5---3----1----0-----------------0-
-6---5----3----1--3----1---0-----1-
------------------3----2---0--2--0-
------------------------------3--2-
---------------------------------3-
-----------------------------------


Verse 1:

C                     G                 Am           Fmaj7     F6
When I find myself in times of trouble, Mother Mary comes to me
C                 G              F   C
Speaking words of wisdom, let it be
C                 G                Am                 Fmaj7      F6
And in my hour of darkness, She is standing right in front of me
C                 G              F   C
Speaking words of wisdom, Let it be


Chorus:

        Am         C/G       F          C
Let it be, let it be, let it be, let it be
                 G              F  C
Whisper words of wisdom, let it be


Verse 2:

C                   G               Am        Fmaj7       F5
And when the broken hearted people, Living in the world agree
C                G              F   C
There will be an answer, let it be
C                   G               Am        Fmaj7       F6
But though they may be parted, There is still a chance that they will see
C                G              F   C
There will be an answer, let it be

Chorus:

Am         C/G          F          C
Let it be, let it be, let it be, let it be
C                G              F  C
There will be an answer, let it be
Am         C/G          F          C
Let it be, let it be, let it be, let it be
C                G              F  C
Whisper words of wisdom, let it be

Solo (see below, both versions!)

Am         C/G          F          C				
Let it be, let it be, let it be, let it be
C                G              F  C
Whisper words of wisdom, let it be

Verse 3:
C                   G                  Am            Fmaj7  F6
And when the night is cloudy, there is still a light that shines on me
C                G              F   C	
Shine on till tomorrow, let it be	
C                   G                   Am   Fmaj7      F6
I wake up to the sound of music, Mother Mary comes to me
C                G              F   C	
Speaking words of wisdom, let it be		


Am         C/G          F          C
Let it be, let it be, let it be, let it be
C                G              F  C
Whisper words of wisdom, let it be
Am         C/G          F          C
Let it be, let it be, let it be, let it be
C                C/G              F  C
Whisper words of wisdom, let it be


Let It Be -- solo #1
e--------------------------------------------------------------|
b--------------------------------------------------------------|
g--------------------------------------------------------------|
d--------------------------------------------5--7h5------------|
a-------3--3--3/7/5--3--5--5-------3h5--5/7----------7h5--3----|
e-----------------------------3h5------------------------------|

e--------------------------------------------------------------|
b-----------------------------8--------------------------------|
g---------------------5--7/9-----9/7--5--7--5------------------|
d------5--5-----5--7---------------------------7--5------------|
a--/7--------7---------------------------------------7--5--3---|
e--------------------------------------------------------------|

e--------------------------------------------------------------|
b------------------------------------------8--10--8------------|
g----------------/9--7--5--7------------9------------9--7--5---|
d---------/7--5---------------7---5--7-------------------------|
a--/7--3-------------------------------------------------------|
e--------------------------------------------------------------|

e---------------8------------/12--10--8------|
b------------------10--8-----------------10--|
g--------5--/9------------9------------------|
d--5--7--------------------------------------|
a--------------------------------------------|
e--------------------------------------------|

e---------------------------|
b--8-----10h8---------------|
g-----9--------9h7--5h7--5--|
d---------------------------|
a---------------------------|
e---------------------------|


Let It Be -- solo #2

e----------------------------------------------------------------|
b----------------------------------------------------------------|
g---5----5-------------------------------------5---7b---7br---5--|
d---5h7--5-------------------5--5-----5---5h7--------------------|
a------------7\5---3---3/7---------7-----------------------------|
e----------------------------------------------------------------|

e--------8------------------5------------------------------------|
b---------------------------5------------------------------------|
g--7/9------9\7---5h7---7b-----7br---5---------------------------|
d---------------------------------------7h5---7h5----------------|
a--------------------------------------------------7\5--3h5--3---|
e----------------------------------------------------------------|

e--------------------------------------------------------8--10b--|
b---------------------------8-------8-------8--10--8h10----------|
g--------5--5------5---7/9-----7/9-----7/9-----------------------|
d---5h7---------7------------------------------------------------|
a----------------------------------------------------------------|
e----------------------------------------------------------------|

e--10br---8h10--8----8--15b--------------------------------------|
b------------------------------15br---13--15---15br---13h15--13--|
g----------------------------------------------------------------|
d----------------------------------------------------------------|
a----------------------------------------------------------------|
e----------------------------------------------------------------|





Comments


Popular Beatles tabs & chords
Being For The Benefit Of Mr. Kite! 1 Bass Tabs
Sgt. Pepper's Lonely Hearts Club Band Bass Tabs
All You Need Is Love 1 Chords
Baby Its You 1 Chords
Everybodys Got Something To Hide Except Me And My Monkey Chords
Golden Slumbers 2 Chords
Everybody's Trying To Be My Baby Tabs
From Me To You 2 Tabs
Hey Jude 2 Tabs
Let It Be 4 Tabs


Song lyrics



↑ Back to top | Tablatures and chords are parodies/interpretations of the original songs. You may use it for private study, scholarship, research or language learning purposes only
© 2014 AZChords.com Contact us | Privacy policy | DMCA | Add/correct tabs | Request tabs | Top 50 tabs