» » »

I Saw Her Standing There Bass tabs (ver.1)

Artists:  A B C D E F G H I J K L M N O P Q R S T U V W X Y Z # 

I Saw Her Standing There Bass tabs (ver.1)

Beatles
Rating:
0/5 (0 votes)

Hard to play? Try these video lessons and learn fast.
                I saw her standing there

Intro 

1, 2, 3, 4

-----------------------
-----------------------       ( play 4 times)
-----------2--2--0-----
--0-0--4-0---------4---


----------------------------------------------
----------------------------------------------
-----------------------2--2--0-------------2--
---------------0-0-4-0----------4--0-0-4-0----
Well, she was just     seventeen

---------------------------------------------
----------------2--2--0----------------------
-2-0----0-0-4-0----------4-----------2--2----
-----4-----------------------0-0-4-0---------
And you know    what I mean

----------------------------------------------------------
---------------------------------------------------4-4-4-4-4-4-4-4-4-4-
--0-----------------2-2-0--------------2-2--0------2-2-2-2-2-2-2-2-2-2-
-----4--0-0--4---0--------4--0-0-4-0----------4-----------
And the way  she looked was way        beyond compare

---------------------------------------------------------
4-4------------------------------------------------------
2-2------------------------------------------------------
-----0--0--0--0-----4-4-4-4---5-5-5-5--8-8------------
So,  how could I dance with another,   oh

------------------------------2-2-0---------------------4-4-4-4-4-4-4-4---
-------------2-2-0---0-0-4-0--------4----------2-2-0----2-2-2-2-2-2-2-2---
8-8---0-0-4-0-----4---------------------0-0-4-0------4--------------------
When I  saw    her   standing there.



----------------------------------------------
----------------------------------------------
-----------------------2--2--0-------------2--
---------------0-0-4-0----------4--0-0-4-0----
          Well she, look at me,

---------------------------------------------
----------------2--2--0----------------------
-2-0----0-0-4-0----------4-----------2--2----
-----4-----------------------0-0-4-0---------
And I, I could see

----------------------------------------------------------
---------------------------------------------------4-4-4-4-4-4-4-4-4-4-
--0-----------------2-2-0--------------2-2--0------2-2-2-2-2-2-2-2-2-2-
-----4--0-0--4---0--------4--0-0-4-0----------4-----------
That before too long       I´d fall in love with her

---------------------------------------------------------
4-4------------------------------------------------------
2-2------------------------------------------------------
-----0--0--0--0-----4-4-4-4---5-5-5-5--8-8------------
She wouldn´t dance with another, whoa

------------------------------2-2-0---------------------4-4-4-4-4-4-4-4---
-------------2-2-0---0-0-4-0--------4----------2-2-0----2-2-2-2-2-2-2-2---
8-8---0-0-4-0-----4---------------------0-0-4-0------4--------------------
When I saw her standing there

Part B
--------------------------------------------------------
----------------------------2-2-------------------------
4-4--2-2-----------0-0-3-4------3-4--0-0-3-4--------------
---------4-4-2-0----------------------------------------
           Well my heart    went     boom

------------------------------------------------------
-2-2---------------2-2--------------------------------
-----3-4--0-0-3-4------3-4-0-0-3-4----------------------
------------------------------------------------------
When I   crossed   that    room

-2-2--------------2-2-------------2-2-------4-4-4-4-4-4-4-4-4-4-7-7-7-7-7-7-7-
-----3-4-0-0-3-4------3-4-0-0-3-4------3-4--2-2-2-2-2-2-2-2-2-2-5-5-5-5-5-5-5-
And I    held     her     hand         in   mine


----------------------------------------------
----------------------------------------------
-----------------------2--2--0-------------2--
---------------0-0-4-0----------4--0-0-4-0----
Whoa we dance trough the night

---------------------------------------------
----------------2--2--0----------------------
-2-0----0-0-4-0----------4-----------2--2----
-----4-----------------------0-0-4-0---------
And we held each other tight

----------------------------------------------------------
---------------------------------------------------4-4-4-4-4-4-4-4-4-4-
--0-----------------2-2-0--------------2-2--0------2-2-2-2-2-2-2-2-2-2-
-----4--0-0--4---0--------4--0-0-4-0----------4-----------
And before too long          I fell in love with her

---------------------------------------------------------
4-4------------------------------------------------------
2-2------------------------------------------------------
-----0--0--0--0-----4-4-4-4---5-5-5-5--8-8------------
Now I´ll never dance with another, whoa

------------------------------2-2-0---------------------4-4-4-4-4-4-4-4---
-------------2-2-0---0-0-4-0--------4----------2-2-0----2-2-2-2-2-2-2-2---
8-8---0-0-4-0-----4---------------------0-0-4-0------4--------------------
When I saw her standing there.


Solo (play the same)


--------------------------------------------------------
----------------------------2-2-------------------------
4-4--2-2-----------0-0-3-4------3-4--0-0-3-4--------------
---------4-4-2-0----------------------------------------
           Well my heart    went     boom

------------------------------------------------------
-2-2---------------2-2--------------------------------
-----3-4--0-0-3-4------3-4-0-0-3-4----------------------
------------------------------------------------------
When I   crossed   that    room

-2-2--------------2-2-------------2-2-------4-4-4-4-4-4-4-4-4-4-7-7-7-7-7-7-7-
-----3-4-0-0-3-4------3-4-0-0-3-4------3-4--2-2-2-2-2-2-2-2-2-2-5-5-5-5-5-5-5-
And I    held     her     hand         in   mine


----------------------------------------------
----------------------------------------------
-----------------------2--2--0-------------2--
---------------0-0-4-0----------4--0-0-4-0----
Whoa we dance trough the night

---------------------------------------------
----------------2--2--0----------------------
-2-0----0-0-4-0----------4-----------2--2----
-----4-----------------------0-0-4-0---------
And we held each other tight

----------------------------------------------------------
---------------------------------------------------4-4-4-4-4-4-4-4-4-4-
--0-----------------2-2-0--------------2-2--0------2-2-2-2-2-2-2-2-2-2-
-----4--0-0--4---0--------4--0-0-4-0----------4-----------
And before too long          I fell in love with her

---------------------------------------------------------
4-4------------------------------------------------------
2-2------------------------------------------------------
-----0--0--0--0-----4-4-4-4---5-5-5-5--8-8------------
Now I´ll never dance with another, whoa

------------------------------2-2-0---------------------4-4-4-4-4-4-4-4---
-------------2-2-0---0-0-4-0--------4----------2-2-0----2-2-2-2-2-2-2-2---
8-8---0-0-4-0-----4---------------------0-0-4-0------4--------------------

When I saw her standing there.

End

Thanks for the oportunity

Luis.
            
Hard to play? Try these video lessons and learn fast. | Correct




comments powered by Disqus
↑ Back to top | Tablatures and chords are parodies/interpretations of the original songs. You may use it for private study, scholarship, research or language learning purposes only