» » »

In My Life Tabs (ver.1)

Artists:  A B C D E F G H I J K L M N O P Q R S T U V W X Y Z # 

In My Life Tabs (ver.1)

Beatles
Rating:
0/5 (0 votes)

Hard to play? Try these video lessons and learn fast.
                This is the famous Beatles song In My Life.
		It appeared on their 1965 album Rubber Soul.
		John sang this one.  I have also tabbed out
		the electric piano solo by SIR:George Martin.




    (A)          (E)
|-----5-------------|--------|
|----------------9--|-----/--|
|--6-----6h7--9-----|--.-/---|
|-------------------|---/-.--|
|-------------------|--/-----|
|-------------------|--------|





             (A)     (E7) (F#m)  (A7)      (D) (Dm)    (A)
    There are places I'll remember, all my life, though some have
changed


                 (E7)    (F#m) (A7)        (D)(Dm)  (A)
    Some forever, not for better, some have gone and some remain.



          (F#m)            (Bm)          (G)                   (A)
 All these places had their moments, with lovers and friends, I still
can recal.

         (F#m)             (B)         (D)          (A)
 Some are dead and some are living.  In my life I've loved them all.


(OPENING RIFF)


ELECTRIC PIANO SOLO:


|------------9-----12p10--12----------------------9p7--9---10--12--15--|
|-----10h12----10-------------12-----12---7h9/10-----------------------|
|---------------------------------9------------------------------------|
|----------------------------------------------------------------------|
|--0-------------------------------------------------------------------|
|----------------------------------------------------------------------|


|-14-12-14----14----14----13p12--13-------12-10-12-9-12----12----12p10--12-9-----|
|----------15----14----12-----------15-12---------------12----10-------------12--|
|--------------------------------------------------------------------------------|
|--------------------------------------------------------------------------------|
|--------------------------------------------------------------------------------|
|--------------------------------------------------------------------------------|


(FIRST LINE AGAIN)


|--12--9h10h12--9-------------------------------|
|-----------------10---9---10p9p7---------------|
|--------------------9-------------9p7p6--------|
|------------------------------------------9p7--|
|-----------------------------------------------|
|-----------------------------------------------|



	The rest of the song is the same except
	for this little bit at the end:


  (E7)      (A)
|------------5--|
|--9--7-9----5--|
|--7---------6--|
|--9---------7--|
|--7------------|
|---------------|


CHORDS USED:

A- 566755
E7- 020100
F#m- 244222
A7- 575655
D- X57775
Dm- X57765
Bm- X24432
G- 355433
B- X24442
            
Hard to play? Try these video lessons and learn fast. | Correct




comments powered by Disqus
↑ Back to top | Tablatures and chords are parodies/interpretations of the original songs. You may use it for private study, scholarship, research or language learning purposes only