» » »

Beatles, If I Fell Tabs (ver.1)

Artists:  A B C D E F G H I J K L M N O P Q R S T U V W X Y Z # 

If I Fell Tabs (ver.1)

Beatles Tabs
 Rating:
4/5 (4 votes)
If I Fell lessons Tabs too difficult? Try these video lessons and learn fast
                If I Fell                                     


                                                                     John Taylor
Guitar 1



                                                              
E||------------------|--6----------------|-------------------|
B||------------------|--7----------------|--7----------------|
G||------------------|--8----------------|--7----------------|
D||------------------|--8----------------|--7----------------|
A||------------------|--6----------------|--5----------------|
E||------------------|-------------------|-------------------|


                                                                                
-------------------|--6----------------|--6----------------|-------------------|
--6----------------|--6----------------|--7----------------|--7----------------|
--6----------------|--6----------------|--8----------------|--7----------------|
--6----------------|--6----------------|--8----------------|--7----------------|
--4----------------|--8----------------|--6----------------|--5----------------|
-------------------|--6----------------|-------------------|-------------------|


                                                                       
--0--------0----3/---|--5----------------||---------------------------|
--0------------------|--5----------------||---------7-----------8-----|
--0------------------|--6----------------||*--------7-----------9-----|
--0------------------|-------------------||*-----7-----7-----9-----9--|
--2------------------|-------------------||---5-----------7-----------|
--0------------------|-------------------||---------------------------|


                                                            
--------------------------------|--------7-----------7-----|
---------10---------------------|--------8-----------8-----|
---------11---------11------11--|-----7-----7-----7-----7--|
-----11------11---------11------|--------------------------|
--9--------------9--------------|--7-----------7-----------|
--------------------------------|--------------------------|


                                                      
--------5-----------------|--------------------------|
--------5-----------------|--------7-----------8-----|
-----6-----6--------------|--------7-----------9-----|
-----------------7-----7--|-----7-----7-----9-----9--|
--------------------7-----|--5-----------7-----------|
--5-----------5-----------|--------------------------|


                                                            
--------------------------------|--------7-----------7-----|
---------10---------------------|--------8-----------8-----|
---------11---------11------11--|-----7-----7-----7-----7--|
-----11------11---------11------|--------------------------|
--9--------------9--------------|--7-----------7-----------|
--------------------------------|--------------------------|


                                                                              
--------5-----------------|--------------------------|--6------6--5---------||
--------5-----------------|--------7-----------7-----|--8------8------------||
-----6-----6--------------|--------7-----------7-----|---------------------*||
-----------------7-----7--|-----7-----7-----7-----7--|---------------------*||
--------------------7-----|--5-----------5-----------|----------------------||
--5-----------5-----------|--------------------------|----------------------||


                                                      
--------------------------|--------------------------|
--------5-----------5-----|--------5-----------5-----|
--------5-----------5-----|--------5-----------5-----|
-----4-----4-----4-----4--|-----4-----4-----4-----4--|
--5-----------5-----------|--5-----------5-----------|
--------------------------|--------------------------|


                                                      
--------3-----------3-----|--------3-----------3-----|
--------3-----------3-----|--------3-----------3-----|
-----4-----4-----4-----4--|-----3-----3-----3-----3--|
--5-----------5-----------|--5-----------5-----------|
--------------------------|--------------------------|
--------------------------|--------------------------|


                                                      
--------3-----------3-----|--------------------------|
--------3-----------3-----|--------7-----------7-----|
-----3-----3-----3-----3--|--------7-----------7-----|
--5-----------5-----------|-----7-----7-----7-----7--|
--------------------------|--5-----------5-----------|
--------------------------|--------------------------|


                                                      
--------5-----------------|--------------------------|
--------5-----------------|--------7-----------8-----|
-----6-----6--------------|--------7-----------9-----|
-----------------7-----7--|-----7-----7-----9-----9--|
--------------------7-----|--5-----------7-----------|
--5-----------5-----------|--------------------------|


                                                            
--------------------------------|--------7-----------7-----|
---------10---------------------|--------8-----------8-----|
---------11---------11------11--|-----7-----7-----7-----7--|
-----11------11---------11------|--------------------------|
--9--------------9--------------|--7-----------7-----------|
--------------------------------|--------------------------|


                                                      
--------5-----------------|--------------------------|
--------5-----------------|--------7-----------8-----|
-----6-----6--------------|--------7-----------9-----|
-----------------7-----7--|-----7-----7-----9-----9--|
--------------------7-----|--5-----------7-----------|
--5-----------5-----------|--------------------------|


                                                            
--------------------------------|--------7-----------7-----|
---------10---------------------|--------8-----------8-----|
---------11---------11------11--|-----7-----7-----7-----7--|
-----11------11---------11------|--------------------------|
--9--------------9--------------|--7-----------7-----------|
--------------------------------|--------------------------|


                                                      
--------5-----------------|--------------------------|
--------5-----------------|--------5-----------5-----|
-----6-----6--------------|--------5-----------5-----|
-----------------7-----7--|-----4-----4-----4-----4--|
--------------------7-----|--5-----------5-----------|
--5-----------5-----------|--------------------------|


                                                      
--------------------------|--------3-----------3-----|
--------5-----------5-----|--------3-----------3-----|
--------5-----------5-----|-----4-----4-----4-----4--|
-----4-----4-----4-----4--|--5-----------5-----------|
--5-----------5-----------|--------------------------|
--------------------------|--------------------------|


                                                      
--------3-----------3-----|--------3-----------3-----|
--------3-----------3-----|--------3-----------3-----|
-----3-----3-----3-----3--|-----3-----3-----3-----3--|
--5-----------5-----------|--5-----------5-----------|
--------------------------|--------------------------|
--------------------------|--------------------------|


                                                      
--------------------------|--------5-----------------|
--------7-----------7-----|--------5-----------------|
--------7-----------7-----|-----6-----6--------------|
-----7-----7-----7-----7--|-----------------7-----7--|
--5-----------5-----------|--------------------7-----|
--------------------------|--5-----------5-----------|


                                                            
--------------------------|--------------------------------|
--------7-----------8-----|---------10---------------------|
--------7-----------9-----|---------11---------11------11--|
-----7-----7-----9-----9--|-----11------11---------11------|
--5-----------7-----------|--9--------------9--------------|
--------------------------|--------------------------------|


                                                      
--------7-----------7-----|--------5-----------------|
--------8-----------8-----|--------5-----------------|
-----7-----7-----7-----7--|-----6-----6--------------|
--------------------------|-----------------7-----7--|
--7-----------7-----------|--------------------7-----|
--------------------------|--5-----------5-----------|


                                                            
--------------------------|--------------------------------|
--------7-----------8-----|---------10---------------------|
--------7-----------9-----|---------11---------11------11--|
-----7-----7-----9-----9--|-----11------11---------11------|
--5-----------7-----------|--9--------------9--------------|
--------------------------|--------------------------------|


                                                      
--------7-----------7-----|--------5-----------------|
--------8-----------8-----|--------5-----------------|
-----7-----7-----7-----7--|-----6-----6--------------|
--------------------------|-----------------7-----7--|
--7-----------7-----------|--------------------7-----|
--------------------------|--5-----------5-----------|


                                                                               
--------------------------|--------------------------|------------------------|
--------7-----------7-----|--------3-----------3-----|--------7---------------|
--------7-----------7-----|--------3-----------3-----|--------7---------------|
-----7-----7-----7-----7--|-----5-----5-----5-----5--|-----7-----7-------7----|
--5-----------5-----------|--------------------------|--5-----------5---------|
--------------------------|--3-----------3-----------|------------------------|


                                            
----------------------|-------------------||
----------------------|-------------------||
-------5----7----9----|-------------------||
--8-------------------|--7----------------||
----------------------|-------------------||
----------------------|-------------------||
            
Submit corrections

comments powered by Disqus
↑ Back to top | Beatles Tabs for If I Fell. Lyrics for acoustic guitar and electric guitar. Tablatures and chords are parodies/interpretations of the original songs. You may use it for private study, scholarship, research or language learning purposes only